Cifra Club

Pila Pila

Intoxicados

Chords: Principal (acoustic and electric guitars)
tone: D
Intro

    D
E|------2-5------------2-5-------------|
B|--3----------------3-----------------|
G|-------------2--------------2--------|
D|-------------------------------------|
A|-------------------------------------|
E|--------------------------------------r| epite

Este motivo varía según el tono que toca Pity:

Estrofa 1- la primera vez se toca junto con la guitarra de Pity

    D
E|------2-5------------2-5-------------|
B|--3----------------3-----------------|
G|-------------2--------------2--------|
D|-------------------------------------|
A|-------------------------------------|
E|-------------------------------------r| epite

   A
E|------0-------------0--------|
B|----2-------------2----------|
G|--2------------2-------------|
D|---------2-------------2-----|
A|-----------------------------|
E|------------------------------r| epite

    G
E|------7-10------------7-10----|
B|--8---------------8----------8|
G|-------------7----------------|
D|------------------------------|
A|------------------------------|
E|------------------------------r| epite



La 2º vuelta solamente rasguido.El resto de la canción también.

****
Dice Pity Álvarez: “el título y el espíritu del tema
hacen referencia a un estado químico, anímico, emocional
y espiritual donde la energía se transforma en acción.
Donde la acción se transforma en fiesta.
Donde la fiesta celebra la vida.
Donde la vida celebra la música.”
***********
00:00 / 00:00
Other videos of this song
Repeat
Other videos of this song
Composed by Pity
366 views
    • ½ Tone
    • A
    • Bb
    • B
    • C
    • Db
    • D
    • Eb
    • E
    • F
    • F#
    • G
    • Ab
  • Add to list
    00:00 / 00:00
    OK