Cifra Club

Aprenda

Quieren Rock By Aga

Intoxicados

Tablatura: Principal (guitarra)
tono: G
Tempo: 180. 
Guitarra 1 (Distorsion): 
     |Intro: 
E|--------------------------------------------------------------------------| 
B|--------------------------------------------------------------------------| 
G|-4------------------------------------------------------------------------| 
D|-4----------------2h----------2--4----2-----------2--4----2---------------| 
A|------------------0-----3h-0--0--0----0h-3h-0-----0--0----0--3h-0---------| 
E|-------------------------------------------------------------------3b-----| 

|                                                  |Entra segunda giutarra con un pick-slide 
|Riff:                                             |      Y hacen las dos el mismo riff. 
|----------------------------------------------------------------------------| 
|/------------------------------------------------\|-------------------------| 
|----------------------------------------------------------------------------| 
|--2----2-----2--4h-2--2-----2-----2------------------2----2-----2--4h-2--2--| 
|\-0----3h-0--0--0-----0-----3h-0--0-------0------/|--0----3h-0--0--0-----0--| 
|-------------------------------------3b------3b-----------------------------| 

-----------------------------------------------------------------------------| 
-----------------------------------------------------------------------------| 
-----------------------------------------------------------------------------| 
--2-----2--4h-2-------------2----2-----2--4h-2--2-----2-----2----------------| 
--3h-0--0--0-----0----------0----3h-0--0--0-----0-----3h-0--0-------0--------| 
--------------------3b-----------------------------------------3b------3b----| 

-----------------------------------------------------------------------------| 
-----------------------------------------------------------------------------| 
-----------------------------------------------------------------------------| 
--2----2-----2--4h-2--2-----2-----2--4h-2-------------2----2-----2--4h-2--2--| 
--0----3h-0--0--0-----0-----3h-0--0--0-----0----------0----3h-0--0--0-----0--| 
----------------------------------------------3b-----------------------------| 

-----------------------------------------------------------------------------| 
-----------------------------------------------------------------------------| 
-----------------------------------------------------------------------------| 
--2-----2------------------2----2-----2--4h-2--2-----2-----2--4h-2-----------| 
--3h-0--0-------0----------0----3h-0--0--0-----0-----3h-0--0--0-----0--------| 
-----------3b------3b--------------------------------------------------3b----| 

                                                  Los chicos saben donde esta 
-----------------------------------------------------------------------------| 
-----------------------------------------------------------------------------| 
-----------------------------------------------------------------------------| 
--2----2-----2--4h-2--2-----2-----2------------------2-----------------------| 
--0----3h-0--0--0-----0-----3h-0--0-------0----------0-----------------------| 
-------------------------------------3b------3b------------------------------| 

 la accion... 
-----------------------------------------------------------------------------| 
-----------------------------------------------------------------------------| 
-----------------------------------------------------------------------------| 
----------------2-----2-----2--4h-2--2--2--------2--4h-2--2--2---------------| 
----------------0-----3h-0--0--0-----0--3h-0-----0--0-----0--3h-0------------| 
-------------------------------------------------------------------3b--------| 

 Se estan preparando mientras baja el sol... 
------------------------------------------------------------------| 
------------------------------------------------------------------| 
------------------------------------------------------------------| 
--2---------------------------------2-----2-----2--4h-2--2--2-----| 
--0---------------------------------0-----3h-0--0--0-----0--3h-0--| 
------------------------------------------------------------------| 

                         la banda que les gusta se presenta hoooy... 
-----------------------------------------------------------------| 
-----------------------------------------------------------------| 
-----------------------------------------------------------------| 
--2--4h-2--2--2-------------2---------------------------------2--| 
--0--0-----0--3h-0----------0---------------------------------0--| 
--------------------3b-------------------------------------------| 

-----------------------------------------------------------------| 
-----------------------------------------------------------------| 
-----------------------------------------------------------------| 
--2-----2--4h-2--2--2--------2--4h-2--2--2-------------2---------| 
--3h-0--0--0-----0--3h-0-----0--0-----0--3h-0----------0---------| 
-----------------------------------------------3b----------------| 

       rock,                          rock, 
-----------------------------------------------------------------| 
-----------------------------------------------------------------| 
-----------------------------------------------------------------| 
-------------2----2-----2--4h-2--2-----2-----2--4h-2-------------| 
-------------0----3h-0--0--0-----0-----3h-0--0--0-----0----------| 
---------------------------------------------------------3b------| 

----------------------------------------------------------------------------| 
----------------------------------------------------------------------------| 
----------------------------------------------------------------------------| 
--2----2-----2--4h-2--2-----2-----2------------------2----2-----2--4h-2--2--| 
--0----3h-0--0--0-----0-----3h-0--0-------0----------0----3h-0--0--0-----0--| 
-------------------------------------3b------3b-----------------------------| 

----------------------------------------------------------------------------| 
----------------------------------------------------------------------------| 
----------------------------------------------------------------------------| 
--2-----2--4h-2-------------2----2-----2--4h-2--2-----2-----2---------------| 
--3h-0--0--0-----0----------0----3h-0--0--0-----0-----3h-0--0-------0-------| 
--------------------3b-----------------------------------------3b------3b---| 

 Subo al escenario y veo de repente 
-----------------------------------------------------------------| 
-----------------------------------------------------------------| 
-----------------------------------------------------------------| 
--2--------------------------------2-----2-----2--4h-2--2--2-----| 
--0--------------------------------0-----3h-0--0--0-----0--3h-0--| 
-----------------------------------------------------------------| 

                         Chicos intoxicados por el rock and roll 
-----------------------------------------------------------------| 
-----------------------------------------------------------------| 
-----------------------------------------------------------------| 
--2--4h-2--2--2-------------2---------------------------------2--| 
--0--0-----0--3h-0----------0---------------------------------0--| 
--------------------3b-------------------------------------------| 

                                                     Ya colgaron sus banderas 
-----------------------------------------------------------------| 
-----------------------------------------------------------------| 
-----------------------------------------------------------------| 
--2-----2--4h-2--2--2--------2--4h-2--2--2-------------2---------| 
--3h-0--0--0-----0--3h-0-----0--0-----0--3h-0----------0---------| 
-----------------------------------------------3b----------------| 

  y cantan como siempre 
------------------------------------------------------------------------| 
------------------------------------------------------------------------| 
------------------------------------------------------------------------| 
----------------2-----2-----2--4h-2--2--2--------2--4h-2--2--2----------| 
----------------0-----3h-0--0--0-----0--3h-0-----0--0-----0--3h-0-------| 
-------------------------------------------------------------------3b---| 

             Que salga la banda queremos rock 
------------------------------------------------------------------------| 
------------------------------------------------------------------------| 
------------------------------------------------------------------------| 
--2---------------------------------------------------------------------| 
--0---------------------------------------------------------------------| 
------------------------------------------------------------------------| 

                  queremos  rock, 
-------------------------------------------------------| 
-------------------------------------------------------| 
-------------------------------------------------------| 
--------------------------------2----2-----2--4h-2--2--| 
--------------------------------0----3h-0--0--0-----0--| 
-------------------------------------------------------| 

                      rock, 
----------------------------------------------------------------------------| 
----------------------------------------------------------------------------| 
----------------------------------------------------------------------------| 
--2-----2--4h-2-------------2----2-----2--4h-2--2-----2-----2---------------| 
--3h-0--0--0-----0----------0----3h-0--0--0-----0-----3h-0--0-------0-------| 
--------------------3b-----------------------------------------3b------3b---| 

                        rock 
-----------------------------------------------------------------------------| 
-----------------------------------------------------------------------------| 
-----------------------------------------------------------------------------| 
--2----2-----2--4h-2--2-----2-----2--4h-2-------------2----2-----2--4h-2--2--| 
--0----3h-0--0--0-----0-----3h-0--0--0-----0----------0----3h-0--0--0-----0--| 
----------------------------------------------3b-----------------------------| 

                      |SOLO: 
       
rock, rock ,rock 
---------------------------------------------------------------------| 
-------------------------7-----------------7----------------------7--| 
-------------------------7-----------------7----------------------7--| 
--2---------------------------9------7--9------------9------7--9-----| 
--3h-0-----0---------------------------------------------------------| 
--------3b-----------------------------------------------------------| 

--------------------------------------------------------------------| 
-------------------7------------------------------------------------| 
-------------------7------------------------------------------------| 
------9------7--9------------9------7--9-------7~-------------------| 
--------------------------------------------------------------------| 
--------------------------------------------------------------------| 

------------------------------------------------------------------------| 
--------------------------7-----------------7----------------------7----| 
--------------------------7-----------------7----------------------7----| 
--7~-7~-7~-7~-7~---------------9------7--9------------9------7--9-------| 
------------------------------------------------------------------------| 
------------------------------------------------------------------------| 

------------------------------------------------------------------------| 
-------------------7----------7--7---------------9-------------------9--| 
-------------------7----------7--7---------------9-------------------9--| 
------9------7--9----------9----------7--9------------11------9--11-----| 
------------------------------------------------------------------------| 
------------------------------------------------------------------------| 

-----------------------------------------------------------------------------| 
---------------------11-------------------------11---------------------------| 
---------------------11-------------------------11---------------------------| 
------11------9--11-------------13------11--13-------------13------11--13----| 
-----------------------------------------------------------------------------| 
-----------------------------------------------------------------------------| 

----------------------------------------------------------| 
----------------------------------------------------------| 
--13~----13~---13~--13~------13~-13~-13~13~-13~-13~-------| 
-----------------------------------------------------9----| 
----------------------------------------------------------| 
----------------------------------------------------------| 

|---------------------------------------------------------------------| 
|--7-----------------7---------------------------7--------------------| 
|--7-----------------7---------------------------7-----------------9b-| 
|-------9------7--9------------9------7--9------------9------7--9-----| 
|---------------------------------------------------------------------| 
|---------------------------------------------------------------------| 

----------------------------------------------------------------------| 
------------------------7-----------------7---------------------------| 
----7h9--7--------------7-----------------7---------------------------| 
-----------------------------9------7--9------------9------7--9-------| 
----------------------------------------------------------------------| 
----------------------------------------------------------------------| 

------------------------------------------------7------------7--------| 
-7-----------------7------------------------7-----10-7---7-----10-7---| 
-7-----------------7b-----------------9----------------9------------9-| 
------9------7--9-----------------------------------------------------| 
----------------------------------------------------------------------| 
----------------------------------------------------------------------| 

-------------------------------------------------------------| 
--7---10-10-7---7---7--10------10b--10-9-7---7---------------| 
--------------9----------------------------9---9-7-9-7-9--7--| 
-------------------------------------------------------9--7--| 
-------------------------------------------------------------| 
-------------------------------------------------------------| 

----------------------------------------------------7--7------7--7------7--| 
----------------------------------------------------7--7------7--7------7--| 
----7------------------------7-----9--7----10b------------10b-------10b----| 
-9-----9-------7--9-------9-----9--9--7------------------------------------| 
------------9--------------------------------------------------------------| 
---------------------------------------------------------------------------| 

--7------7--7------7--10h-7---------7--7--7--7-----------------------------| 
--7------7--7------7----------------7--7--7--7-----------------------------| 
-----10--------10b--------------10b----------------------7-------7-------7-| 
---------------------------------------------------------7-------7-------7-| 
---------------------------------------------------------5-------5-------5-| 
---------------------------------------------------------------------------| 

 Mantiene el Re -----------------------------------------------------------| 
---------------------------------------------------------------------------| 
---------------------------------------------------------------------------| 
---------------------------------------------------------------------------| 
---------------------------------------------------------------------------| 
---------------------------------------------------------------------------| 
---------------------------------------------------------------------------| 

                      Mantiene el Mi---------------------------------------| 
---------------------------------------------------------------------------| 
---------------------------------------------------------------------------| 
--9-------9-------9--------------------------------------------------------| 
--9-------9-------9--------------------------------------------------------| 
--7-------7-------7--------------------------------------------------------| 
---------------------------------------------------------------------------| 

---------------------------------------------------------------------------| 
---------------------------------------------------------------------------| 
-----------------------------------------------------------11--14----------| 
---------------------------------------------------------------------------| 
---------------------------------------------------------------------------| 
---------------------------------------------------------------------------| 

|--------------------------------------------------| 
|--12--------12-----------12------12---10b---------| 
|--------------------------------------------12-11-| 
|--------------------------------------------------| 
|--------------------------------------------------| 
|--------------------------------------------------| 

-----------------------------------------------------------------| 
--12-10--------12-10---------------------------------------------| 
--------12-11--------12-11-----9----12-9b------------------------| 
----------------------------12--------------12-9-12-9------------| 
------------------------------------------------------12-10-12b--| 
-----------------------------------------------------------------| 

                  |Pick-Slide                Final 
-----------------------------------------------------------|
-----------------------------------------------------------| 
-----------------------------------------------------------| 
------------------------------------------------9----------| 
------------------------------------------------9----------| 
------------------------------------------------7----------|
Colaboración y revision:
  • Giovani Paniz
358 reproducciones
    • ½ Tono
    • A
    • Bb
    • B
    • C
    • Db
    • D
    • Eb
    • E
    • F
    • F#
    • G
    • Ab
  • Adicionar à lista

    0 comentarios

    Ver todos os comentários

    ¿Conseguiste tocar?

    0 Tocaram 0 Ainda não

    Grave um vídeo tocando Quieren Rock By Aga e nos envie!

    00:00 / 00:00
    outros vídeos desta música
    repetir qualidade Automático
    Outros vídeos desta música
    00:00 / 00:00
    Automático
    OK