Cifra Club

Reggae para los amigos

Intoxicados

Cifrado: Principal (guitarra y guitarra eléctrica)
tono: F#m
Intro: F#m

E|---------------|
B|---------------|
G|---------------| x4
D|---------------|
A|------4-5-4--2-|
E|-2-2-----------|


F#m
Me gusta el raggea y yo quiero dejar en claro mi mensaje
no me agrada esa gente que con gestos demuestran bien
su expresión, esta canción yo la hice para todos mis queridos
amigos, con este humilde ritmo les digo, los admiro y necesito

Bm
Y voy dejar que las palabras salgan solas la energía que me dan
es lo que hace latir a mi corazón, nunca estoy solo porque con
mi imaginación siempre está cerca a quien debo yo agradecer
este bonito regalo que la vida me dio.

Intro

F#m
Que buena familia me tocó y que buenos amigos pude encontrar
no se si fue casualidad pero creo que tuve mucha suerte.
no es fácil cruzarse con gente con tanta onda conectada a tan
loca frecuencia es que un amigo es un hermano un maestro
es parte de pasado.

Bm
Y voy dejar que las palabras salgan solas la energía que me dan
es lo que hace latir a mi corazón

Bm
Y voy dejar que las palabras salgan solas la energía que me dan
es lo que hace latir a mi corazón, nunca estoy solo porque con
mi imaginación siempre está cerca a quien debo yo agradecer
este bonito regalo que la vida me dio.

~: Hacer vibrar
s: Deslizar

E|---10s12~--------------------------------------------|
B|----------------------------------------8s10--9s12~--|
G|------------9-11s12s11-9---9-11s12s11-9--------------|
D|-----------------------------------------------------|
A|-----------------------------------------------------|
E|-----------------------------------------------------|

E|--10s12-10----------------------------------------------------|
B|----------13-12--12s13s12-10-12-8---7-7-7s8s7-----------------|
G|-----------------------------------9----------9-7--7--7s9s7---|
D|--------------------------------------------------9--------9--|
A|--------------------------------------------------------------|
E|--------------------------------------------------------------|

E|--------------------------------------------------------|
B|-------------------------------------10-8-7-7s8s7-------|
G|-------------------------------9---7-------------7------|
D|--------------9--9-12s11-9--9-9-------------------9-----|
A|----10-9-12-10------------------------------------------|
E|--12----------------------------------------------------|

E|--12-10---------10-9-7-----10-9-7---9-7-------------------------|
B|--------10-12---------10---------10----10-8-7----7s8s7----------|
G|-9--9--9-------------------------------------9-7-------9-7-9s11-|
D|----------------------------------------------------------------|
A|----------------------------------------------------------------|
E|----------------------------------------------------------------|


F#m
Me gusta el raggea y yo quiero dejar en claro mi mensaje
no me agrada esa gente que con gestos demuestran bien
su expresión, esta canción yo la hice para todos mis queridos
amigos, con este humilde ritmo les digo, los admiro y necesito
00:00 / 00:00
Otros videos de esta canción
Repetir
Otros videos de esta canción
Composición de Pity Alvarez
751 exhibiciones
    • ½ Tono
    • Am
    • Bbm
    • Bm
    • Cm
    • C#m
    • Dm
    • Ebm
    • Em
    • Fm
    • F#m
    • Gm
    • G#m
  • Agregar a la lista
    00:00 / 00:00
    OK