Cifra Club

Señor Kiosquero

Intoxicados

Cifrado: Principal (guitarra y guitarra eléctrica)
tono: G

Acordes
G  : 6)--3--    C : 6)--*--
E|--*--| 1)--*--
B|--*--| 2)--*--
G|--*--| 3)--5--
D|--5--| 4)--5--
A|--5--| 5)--3--

G  
Hola Señor Kioskero
vengo en busca
de su dinero
ponga las manos arriba
y presteme mucha atención

C 
mi familia no tiene trabajo
y yo trabajar no quiero
por eso ponga el dinero
en esta bolsa
      G  
por favor...

G  
Señor Kiosquero...
E|----------------------------|
B|--5s6-6-6-6-6-6-6-6---------|
G|--6s7-7-7-7-7-7-7-7-7s5-3---|
D|-------------------------5--| s: Deslisar
Kioskero,
E|----------------------------| v: Estirar la cuerda
B|----------------------------|
G|---3v-----------------------| 5v(7):Estirar A  cuerda
D|--5--5-3--------------------| hasta que suene la
A|--------5-4-3---------------| nota(7)
E|-------------6-3------------|
Señor Kioskero...
E|----------------------------|
B|--5s6-6-6-6-6-6-6-6---------|
G|--6s7-7-7-7-7-7-7-7-7s5-3---|
D|-------------------------5--|
Kioskero
E|--3-------------------------|
B|---3-3s6-5-3----------------|
G|------------5-3-------------|
D|---------------5-3----------|
A|------------------5-3-------|
E|---------------------6s/----|


G  
Yo no quise hacerle daño
solo que antes
de irme primero
quiero llevarme el video
que todo este asalto grabó

       C 
y si algun día
puedo, espero
en la vida
tenga mucha suerte
si consigo ese dinero
voy a venirselo
A traer

G  
Señor Kiosquero...
E|----------------------------|
B|--5s6-6-6-6-6-6-6-6---------|
G|--6s7-7-7-7-7-7-7-7-7s5-3---|
D|-------------------------5--|

Kioskero,
E|----------------------------|
B|----------------------------|
G|---3v-----------------------|
D|--5--5-3--------------------|
A|--------5-4-3---------------|
E|-------------6-3------------|
Señor Kioskero...
E|-------6-----6----6----------|
B|--5v(7)-5v(7)-5v(7)-5v(7)-3--|
G|---------------------------5-|


Kioskero...


Señor Kioskero,
no me gusta
lo que le estoy
haciendo,
Pero Señor Kioskero
yo trabajar
no quiero
00:00 / 00:00
Otros videos de esta canción
Repetir
Otros videos de esta canción
Compositor no encontrado.
449 exhibiciones
    • ½ Tono
    • A
    • Bb
    • B
    • C
    • Db
    • D
    • Eb
    • E
    • F
    • F#
    • G
    • Ab
  • Agregar a la lista
    00:00 / 00:00
    OK