Cifra Club

El Anillo Del Capitán Beto

Invisible

Cifrado: Principal (guitarra y guitarra eléctrica)
Selo Cifra Club: esta cifra foi revisada para atender aos critérios oficiais da nossa Equipe de Qualidade.
tono: F#m
[Refrão]

[Tab - Riff 1]

    D6(9/11+)
E|------------------------------------------|
B|--------5--------5-7-5-----------5--7-----|
G|--4--6-----4---6--------6--4--6-----------|
D|------------------------------------------|
A|------------------------------------------|
E|------------------------------------------|

B6(9/11+)                      
          Ahí va el Capitán Beto
          A    A4  A
Por el espacio 
B6(9/11+)                    
          Con su nave de fibra
           A   A4  A
Hecha en Haedo 
C#m7              F#m7
     Ayer colectivero
C#m7                   F#m7     Riff 1
     Hoy amo entre los amos del aire

B6(9/11+)                       
          Ya lleva quince años
         A    A4  A
En su periplo 
B6(9/11+)                       
          Su equipo es tan precario
            A   A4  A
Como su destino 
C#m7                  F#m7
     Sin embargo un anillo extraño
C#m7                 F#m7         Riff 1
     Ahuyenta sus peligros en el cosmos

[Tab - Interlúdio]

Parte 1 de 2
E|------------------------------------------|
B|------------------------------------------|
G|------------------------------------------| (3x)
D|-----------1--2--------1------------------|
A|--------2-----------2-----2--4--0--2------|
E|--0---------------------------------------|

Parte 2 de 2
E|------------------------------------------|
B|------------------------------------------|
G|------------------------------------------|
D|-----------1--2--------1------------------|
A|--------2-----------2-----2--4--0--2------|
E|--0-----------------------------------0---|

[Refrão 2]

B6(9/11+)                      
          Ahí va el Capitán Beto
          A    A4  A
Por el espacio 
B6(9/11+)                   
          La foto de Carlitos
            A    A4  A
Sobre el comando 
C#m7                   F#m7
     Y un banderín de River Plate
C#m7                F#m7          Riff 1
     Y la triste estampita de un santo

[Primeira Parte]

F#m7           Bm7     C#m7   
     ¿Dónde está el lugar al
     F5     G5     A5
Que todos llaman cielo? 

 F#m7      Bm7          C#m7
Si nadie viene hasta aquí
     F5     G5   A5     
A cebarme unos amargos
     Bm9     C#m7    D#m7
Como en mi viejo umbral 

Bm7             C#m7  Bm7          F#m7
   ¿Por qué habré  venido hasta aquí
             C7M    C#7  F#m7
Si no puedo más de sole_dad?
             C7M    G#m  A
Ya no puedo más de sole_dad

[Refrão 3]

[Tab - Riff 2]

    D6(9/11+)
E|------------------------------------------|
B|--------5--------5-7-5-----------5h7-5----|
G|--4--6-----4---6--------6--4--6-----------|
D|------------------------------------------|
A|------------------------------------------|
E|------------------------------------------|

B6(9/11+)                   
          Su anillo lo inmuniza
             A    A4  A
Contra el peligro 
B6(9/11+)                     
          Pero no lo proteje
           A   A4  A
De la tristeza 
C#m7                F#m7
     Surcando la galaxia del Hombre
C#m7                    F#m7       Riff 2     
     Ahí va el Capitán Beto, el errante

[Segunda Parte]

F#m7            Bm7       C#m7   
     ¿Dónde habrá una ciudad en la
    F5       G5       A5 
Que alguien silbe un tango? 
  F#m7    Bm7          C#m7
¿Dónde están, dónde están
        F5    G5   A5  
Los camiones de basura
     Bm9   C#m7  D#m7
Mi vieja y el café? 

Bm7          C#m7   Bm7      F#m7
    Si esto sigue así como así
               C7M     C#7  F#m7
Ni una triste sombra queda_ra
               C7M     G#m  A
Ni una triste sombra queda_rá

[Refrão 4]

B6(9/11+)                   
          Ahí va el Capitán Beto
          A    A4  A
Por el espacio 
B6(9/11+)                  
          Regando los malvones
         A   A4  A
De su cabina 
C#m7                    F#m7
     Sín brújula y sin radio
C#m7                 F#m7      Riff 2          
     Jamás podrá volver a la Tierra

[Tab - Interlúdio]

Parte 1 de 2
E|------------------------------------------|
B|------------------------------------------|
G|------------------------------------------| (3x)
D|-----------1--2--------1------------------|
A|--------2-----------2-----2--4--0--2------|
E|--0---------------------------------------|

Parte 2 de 2
E|------------------------------------------|
B|------------------------------------------|
G|------------------------------------------|
D|-----------1--2--------1------------------|
A|--------2-----------2-----2--4--0--2------|
E|--0-----------------------------------0---|

[Refrão Final]

B6(9/11+)                   
          Tardaron muchos años
             A    A4  A
Hasta encontrarlo 
B6(9/11+)                    
          El anillo de Beto
             A    
Llevaba inscripto 
    C#m7     E4
Un signo del alma
Otros videos de esta canción
    26.519 exhibiciones
    • Simplificar cifrado
      • ½ Tono
      • Am
      • Bbm
      • Bm
      • Cm
      • C#m
      • Dm
      • Ebm
      • Em
      • Fm
      • F#m
      • Gm
      • G#m
    • Agregar a la lista

    Afinação da cifra

    Afinador online

      Ops (: Contenido disponible solo en portugués.
      OK