Cifra Club

Need You Tonight

INXS

Tab de bajo: Principal
Common Time(4/4)
Drop Eb Tuning(Eb,A,D,G)

RIFF 1:
|----------|--------------|
|*---------|-1-1-0-0-----*|
|*-r-r-r-r-|---------3-r-*|
|----------|--------------|
   1 2 3 4   1 & 2 & 3 4

RIFF 2:
|------------|----------------------|
|*-----------|---------------------*|
|*-3-r-1-3-r-|---------------------*|
|------------|-2---2-2-0-2---2-2-0--|
   1 2 & 3 4   1 & a 2 & 3 & a 4 &

By: Johari Taylor
E-mail: *
00:00 / 00:00
Otros videos de esta canción
Repetir
Otros videos de esta canción
Composición de Andrew Farriss / Michael Hutchence
72 vistas

0 comentarios

Ver todos los comentarios

¿Lograste tocar?

0 Tocaron 0 Aún no

¡Graba un video tocando Need You Tonight y envíanoslo!

00:00 / 00:00
OK