Cifra Club

Eu Quero Sempre Mais

Ira!

Cifrado: Principal (guitarra y guitarra eléctrica)
Selo Cifra Club: esta cifra foi revisada para atender aos critérios oficiais da nossa Equipe de Qualidade.
tono: C
[Intro] C  Am7  G
        C  Am7  G

[Solo Intro]

[Parte 1 de 2]

E|------------------------------------------------------|
B|------------------------------------------------------|
G|------------------------------------------------------|
D|-2-2---0-2-0----2-2---0-2-0--------0-2-0--------------|
A|-----3-------3------3-------3--0-3-------3-0h2--------|
E|------------------------------------------------------|

[Parte 2 de 2]

E|------------------------------------------------------|
B|-1-0-1-3-1-0--1-0-1-3-1-0--1-0-1-3-1-0----------------|
G|------------------------------------------------------|
D|------------------------------------------------------|
A|------------------------------------------------------|
E|------------------------------------------------------|

[Primeira Parte – Primeira Estrofe]

         C
A minha vida
              F9       G9
Eu preciso mudar todo dia
         C7M
Pra escapar
                      F9
Da rotina dos meus desejos
          G9
Por seus beijos

[Primeira Parte – Primeira Estrofe]

[Parte 1 de 4]

E|-3-3-3-3-3-3-3-3--3-3-3-3-3-3-3-3---------|
B|-1-1-1-1-1-1-1-1--1-1-1-1-1-1-1-1---------|
G|-0-0-0-0-0-0-0-0--0-0-0-0-0-0-0-0---------|
D|-2-2-2-2-2-2-2-2--2-2-2-2-2-2-2-2---------|
A|-3-3-3-3-3-3-3-3--3-3-3-3-3-3-3-3---------|
E|------------------------------------------|
   ↓ ↓ ↓ ↓ ↓ ↓ ↓ ↓  ↓ ↓ ↓ ↓ ↓ ↓ ↓ ↓

[Parte 2 de 4]

    F9             G9
E|------------------------------------------|
B|---1-----1--------3-----3-----------------|
G|-----0-----0--------0-----0---------------|
D|-3-----3-----3--5-----5-----5-------------|
A|------------------------------------------|
E|------------------------------------------|

[Parte 3 de 4]

    C7M
E|------------------------------------------|
B|---0-----0--------0-----0-----------------|
G|-----0-----0--------0-----0---------------|
D|-------2-----2--------2-----2-------------|
A|-3--------------3-------------------------|
E|------------------------------------------|

[Parte 4 de 4]

    F9             G9
E|---------3--------------5-----------------|
B|---1-------1------3-------3---------------|
G|-----0--------------0---------------------|
D|-3-----3-----3--5-----5-----5-------------|
A|------------------------------------------|
E|------------------------------------------|

[Primeira Parte – Segunda Estrofe]

           C
E os meus sonhos

Eu procuro acordar
   F9             G9
E perseguir meus sonhos
            C7M
Mas a realidade que vem depois
             F9            G9
Não é bem aquela que planejei

[Primeira Parte – Segunda Estrofe]

[Parte 1 de 4]

E|-3-3-3-3-3-3-3-3--3-3-3-3-3-3-3-3---------|
B|-1-1-1-1-1-1-1-1--1-1-1-1-1-1-1-1---------|
G|-0-0-0-0-0-0-0-0--0-0-0-0-0-0-0-0---------|
D|-2-2-2-2-2-2-2-2--2-2-2-2-2-2-2-2---------|
A|-3-3-3-3-3-3-3-3--3-3-3-3-3-3-3-3---------|
E|------------------------------------------|
   ↓ ↓ ↓ ↓ ↓ ↓ ↓ ↓  ↓ ↓ ↓ ↓ ↓ ↓ ↓ ↓

[Parte 2 de 4]

    F9             G9
E|------------------------------------------|
B|---1-----1--------3-----3-----------------|
G|-----0-----0--------0-----0---------------|
D|-3-----3-----3--5-----5-----5-------------|
A|------------------------------------------|
E|------------------------------------------|

[Parte 3 de 4]

    C7M
E|------------------------------------------|
B|---0-----0--------0-----0-----------------|
G|-----0-----0--------0-----0---------------|
D|-------2-----2--------2-----2-------------|
A|-3--------------3-------------------------|
E|------------------------------------------|

[Parte 4 de 4]

    F9             G9
E|---------3--------------5-----------------|
B|---1-------1------3-----------------------|
G|-----0--------------0---------------------|
D|-3-----3-----3--5-----5-------------------|
A|------------------------------------------|
E|------------------------------------------|

[Refrão]

F9  G9
       Eu quero sempre mais
F9  G9
       Eu quero sempre mais
F9  G9
       Eu espero sempre mais

De ti

( C  Am7  G )
( C  Am7  G )

[Segunda Parte]

    C
Por isso hoje

Estou tão triste
            F9
Por que querer está
     G9         C7M
Tão longe de poder
           F9
E quem eu quero
          G9
Está tão longe

[Refrão]

          C
Longe de mim

F9  G9
       Longe de mim
F9  G9
       Longe de mim
F9  G9
       Longe de mim

[Solo] C  Am7  G
       C  Am7  G
       C  Am7  G
       C  Am7  G

[Solo]

[Parte 1 de 7]

E|------------------------------------------------------|
B|-------------8-------8--------------------------------|
G|-7-7-7/9-9-9---9-7-9---9-9\7-7-7/9-7-5----------------|
D|---------------------------------------7--------------|
A|------------------------------------------------------|
E|------------------------------------------------------|

[Parte 2 de 7]

E|--------------------------8---------------------------|
B|-6-5-----------5-6-8-8/10-----------------------------|
G|-----7-5-4-5-7----------------------------------------|
D|------------------------------------------------------|
A|------------------------------------------------------|
E|------------------------------------------------------|

[Parte 3 de 7]

E|--------8------8------8-------8-10/12-10-8------------|
B|-8-8h10---8h10---8h10-8--8h10-------------------------|
G|------------------------------------------------------|
D|------------------------------------------------------|
A|------------------------------------------------------|
E|------------------------------------------------------|

[Parte 4 de 7]

E|-12-12-12-10-10-10-8-8-8-7-7-7------------------------|
B|-------------------------------10-10-10---------------|
G|----------------------------------------8-8-8---------|
D|----------------------------------------------6-6-6---|
A|------------------------------------------------------|
E|------------------------------------------------------|

[Parte 5 de 7]

E|-5-5-3-5-5-5--3/5-5-x-5-5--3/5-5-x-3-3-3--------------|
B|-5-5-3-5-5-5--3/5-5-x-5-5--3/5-5-x-3-3-3--------------|
G|------------------------------------------------------|
D|------------------------------------------------------|
A|------------------------------------------------------|
E|------------------------------------------------------|
   ↓ ↓ ↓ ↓ ↓ ↓  ↓   ↑ ↓ ↓ ↓  ↓   ↑ ↓ ↓ ↑ ↓  

[Parte 6 de 7]

E|-12-12-12-12-12--10-10-10--8-8-7-7--------------------|
B|-10-10-10-10-10---8--8--8----------10-10-8------------|
G|------------------------------------------------------|
D|------------------------------------------------------|
A|------------------------------------------------------|
E|------------------------------------------------------|
   ↓  ↑  ↓  ↓  ↓   ↓  ↑  ↓

[Parte 7 de 7]

E|------------------------------------------------------|
B|-----8------------------------------------------------|
G|-7h9---9p7-5-7-5--------------------------------------|
D|-----------------7-5----------------------------------|
A|------------------------------------------------------|
E|------------------------------------------------------|

[Primeira Parte – Primeira Estrofe]

         C
A minha vida
              F9       G9
Eu preciso mudar todo dia
         C7M
Pra escapar
                      F9
Da rotina dos meus desejos
          G9
Por seus beijos

Primeira Parte – Segunda Estrofe:

           C
E os meus sonhos

Eu procuro acordar
   F9             G9
E perseguir meus sonhos
            C7M
Mas a realidade que vem depois
             F9            G9
Não é bem aquela que planejei

[Refrão]

F9  G9
       Eu quero sempre mais
F9  G9
       Eu quero sempre mais
F9  G9
       Eu espero sempre mais

De ti

( C  Am7  G )
( C  Am7  G )

[Segunda Parte]

    C
Por isso hoje

Estou tão triste
            F9
Por que querer está
     G9         C7M
Tão longe de poder
           F9
E quem eu quero
          G9
Está tão longe

[Refrão]

          C
Longe de mim

F9  G9
       Longe de mim
F9  G9
       Longe de mim
F9  G9           C  Am7  G
       Longe de mim
          C  Am7  G
Longe de mim
          C
Longe de mim
Otros videos de esta canción
    6.145 exhibiciones
    • Simplificar cifrado
      • ½ Tono
      • A
      • Bb
      • B
      • C
      • Db
      • D
      • Eb
      • E
      • F
      • F#
      • G
      • Ab
    • Agregar a la lista

    Afinação da cifra

    Afinador online

      Capítulos
      • Tocando a música
      • Dicas Iniciais / Equipamentos
      • Acordes Introdução
      • Tocando Introdução (Base)
      • Ritmo da Introdução
      • Tocando Introdução (Solo)
      • Ensinando Solo Introdução
      • Solo Introdução - Parte 1 de 2
      • Solo Introdução - Parte 2 de 2
      • Acordes Primeira Parte
      • Tocando Primeira Parte - Primeira Estrofe
      • Ensinando Primeira Estrofe
      • Primeira Estrofe - Parte 1 de 4
      • Primeira Estrofe - Parte 2 de 4
      • Primeira Estrofe - Parte 3 de 4
      • Primeira Estrofe - Parte 4 de 4
      • Dicas Primeira Parte
      • Tocando Primeira Parte - Segunda Estrofe
      • Ensinando Segunda Estrofe
      • Tocando Refrão
      • Ensinando Refrão
      • Dicas Segunda Parte - Segundo Refrão
      • Tocando Segundo Refrão
      • Ensinando Segundo Refrão
      • Dicas Solo 2
      • Tocando Solo 2
      • Solo 2 - Parte 1 de 7
      • Solo 2 - Parte 2 de 7
      • Solo 2 - Parte 3 de 7
      • Solo 2 - Parte 4 de 7
      • Solo 2 - Parte 5 de 7
      • Solo 2 - Parte 6 de 7
      • Solo 2 - Parte 7 de 7
      • Dicas Repetição
      • Tocando Repetição - Final
      • Encerramento
      • Ficha técnica / Erros de gravação
      Ops (: Contenido disponible solo en portugués.
      OK