Cifra Club

Dream

Iration

Cifrado: Principal (guitarra y guitarra eléctrica)
tono: A
Intro:
E|---------------------7-9/12\9-7-7h9p7-----------7-9/12\9-7-7h9p7---------------|
B| 10/11\10-7--7-7-9-10----------------7--7-7-9-10------------------7-5/7-5/7-8--|
G|-------------------------------------------------------------------------------|
D|-------------------------------------------------------------------------------|
A|-------------------------------------------------------------------------------|
E|-------------------------------------------------------------------------------|

Toca durante a música inteira:

E|------------------------------------------------------------|
B|-----------------------------------------5---3--3-2h3p2-----|
G|-2h4p2-4\6/4-1--2h4p2-4\6/4-1--2h4p2-4\6/4------------------|
D|------------------------------------------------------------|
A|------------------------------------------------------------|
E|------------------------------------------------------------|

               D
You're living out there, surrounded by blue
      C#m
Lush green eyes, sand on your shoes
        D                  C#m   E
You're home and I dream of you
           D
Remember those times?
                                   C#m
You could make a fantasy appear in real life
                                       D
Every time I leave you now I have to think twice
             C#m   E
And dream of you
           D                              C#m
And it's true, there's nowhere quite like you
                          D
It's about time that you knew
            C#m      (E)
You're home and I…

            D
Dream of you I dream
           C#m
Dream of you I dream
            D
Dream of you I dream
           C#m     E
You're home and I…

               D
When I'm lost out there, you're easy to find
       C#m
I close my eyes, you're in my mind
           D               C#m   E
You're home and I dream of you
          D                                                C#m
December sunshine, the only memories are ones that make me feel fine
                                              D           C#m   E
Just know we'll be together when I see you in my dream of you

           D                              C#m
And it's true, there's nowhere quite like you
                          D
It's about time that you knew
            C#m      (E)
You're home and I…

            D
Dream of you I dream
           C#m
Dream of you I dream
            D
Dream of you I dream
           C#m     E
You're home and I…
00:00 / 00:00
Otros videos de esta canción
Repetir
Otros videos de esta canción
Composición de Iration
Colaboración y revisión:
  • Iesa Santiago
118 vistas
    • ½ Tono
    • A
    • Bb
    • B
    • C
    • Db
    • D
    • Eb
    • E
    • F
    • F#
    • G
    • Ab
  • Agregar a la lista

    0 comentarios

    Ver todos los comentarios

    ¿Lograste tocar?

    0 Tocaron 0 Aún no

    ¡Graba un video tocando Dream y envíanoslo!

    00:00 / 00:00
    OK