Cifra Club

I'm With You

Iration

Cifrado: Principal (guitarra y guitarra eléctrica)
tono: Bb
E|---------------------------------|-----------------------------|
B|--18-16-15--------------13-------|-18-16-15--------------13----|
G|----------15--12-14-15----15-14--|----------15--12-14-15----14-|
D|---------------------------------|-----------------------------|
A|---------------------------------|-----------------------------|
E|---------------------------------|-----------------------------|

Cm            Gm                  F            Gm
Although it's hard for me to say what's on my mind
Cm              Gm                F            Gm
I'm tired of messing around and wasting precious time
Cm       Gm        F          Gm
We both know that this feels right
Cm      Gm      F       Gm
I will make it clear tonight

Refrão:
Cm        Gm
I'm with you
Eb       F      Cm       Gm        Eb      F
I've known it for awhile
Cm        Gm
I'm with you
Eb     F     Cm          Gm        Eb
Can't live without your smile
F
Im With You
E|---------------------------------|-----------------------------|
B|--18-16-15--------------13-------|-18-16-15--------------13----|
G|-----------15--12-14-15----15-14-|----------15--12-14-15----14-|
D|---------------------------------|-----------------------------|
A|---------------------------------|-----------------------------|
E|---------------------------------|-----------------------------|

Cm          Gm                 F                       Gm
If I could give you the world You know that's what I'd do
Cm             Gm                 F                  Gm
Tell me your wildest dreams I'll make them all come true
Cm       Gm        F          Gm
We both know that this feels right
Cm      Gm      F       Gm
I will make it clear tonight

Refrão:
Cm        Gm
I'm with you
Eb       F      Cm       Gm        Eb      F
I've known it for awhile
Cm        Gm
I'm with you
Eb     F     Cm          Gm        Eb
Can't live without your smile
F
Im With You
E|---------------------------------|-----------------------------|
B|--18-16-15--------------13-------|-18-16-15--------------13----|
G|----------15--12-14-15----15-14--|----------15--12-14-15----14-|
D|---------------------------------|-----------------------------|
A|---------------------------------|-----------------------------|
E|---------------------------------|-----------------------------|

Ponte:
Eb                      F
We can't tell what the future will be
Eb                        Gm      F
You need to know you can count on me

Refrão:
Cm        Gm
I'm with you
Eb       F      Cm       Gm        Eb      F
I've known it for awhile
Cm        Gm
I'm with you
Eb     F     Cm          Gm        Eb
Can't live without your smile
F
Im With You
00:00 / 00:00
Otros videos de esta canción
Repetir
Otros videos de esta canción
Composición de Fabio
Colaboración y revisión:
  • Fabio Casetta
49 vistas
    • ½ Tono
    • A
    • Bb
    • B
    • C
    • Db
    • D
    • Eb
    • E
    • F
    • F#
    • G
    • Ab
  • Agregar a la lista

    0 comentarios

    Ver todos los comentarios

    ¿Lograste tocar?

    0 Tocaron 0 Aún no

    ¡Graba un video tocando I'm With You y envíanoslo!

    00:00 / 00:00
    OK