Cifra Club

Time Bomb

Iration

Cifrado: Principal (guitarra y guitarra eléctrica)
tono: G
[Intro] C  Em7  D 
        C  Em7  D 
        C  Em7  D 
        C  Em7  D 

              C         Em7     D
E|------------3---------7-------5-----------|
B|------------5---------8-------7-----------|
G|------------5---------7-------7-----------|
D|------------5---------9-------7-----------|
A|---------3-3------7-7------5-5------------|
E|------------------------------------------|

E|------------3---------7-------5-----------|
B|------------5---------8-------7-7-7h8p7---|
G|------------5---------7-------7-----------|
D|------------5---------9-------7-----------|
A|---------3-3------7-7------5-5------------|
E|------------------------------------------|

[Primeira Parte]

C  Em7 
D                        C  Em7
You've seen her at a party
D                    C  Em7
She's doing her rounds
D                         C  Em7
She likes to get it started
D                   C  Em7
She likes to get loud
D                         C  Em7
She's poppin that champagne
D                     C  Em7
She's taking shots down
D                         C  Em7  Bm  C
She's living for the moment

[Refrão]

        C    Em7   D
She's a time bomb, trying to take you out
    C             Em7           D
The ticking of her heart is the only sound
        C    Em7   D
She's a time bomb, about to detonate
    C          Em7       D              Bm  C
You try to cut her wires but you're way too late

[Segunda Parte]

C  Em7 
D                           C  Em7
Whisky stain on her dress now
D                    C  Em7
She's wearing it proud
D                                 C  Em7
And there's nothing you can tell her
D                         C  Em7
Cuz she's starting to shout
          D                     C  Em7
Now she's spraying that champagne
D                C  Em7
All over the crowd
D                         C  Em7  Bm  C
She's living for the moment

[Refrão]

        C    Em7   D
She's a time bomb, trying to take you out
    C             Em7           D
The ticking of her heart is the only sound
        C    Em7   D
She's a time bomb, about to detonate
    C          Em7       D              Bm  C
You try to cut her wires but you're way too late

Solo: (C  Em7  D (7x) ) 
     ( C  Em7  Bm  C )


E|-----------------------------------------------------------------------------------|
B|-----15-------------------12--------15~----13--12-----------12---------------------|
G|--------14-----12-14-14-14---14------------------14-12-12/14--14-12----------------|
D|---------------------------------------------------------------------14-12-14\12---|
A|-----------------------------------------------------------------------------------|
E|-----------------------------------------------------------------------------------|

E|-----------------------------------------------------------------------------------|
B|-----15-------------------12--------15~----13--12-----------12---------------------|
G|--------14-----12-14-14-14---14------------------14-12-12/14--14-12----------------|
D|---------------------------------------------------------------------14-12-14\12---|
A|-----------------------------------------------------------------------------------|
E|-----------------------------------------------------------------------------------|

E|-----------------------------------------------------------------------------------|
B|-----15-------------------12--------15~----13--12-----------12---------------------|
G|--------14-----12-14-14-14---14------------------14-12-12/14--14-12----------------|
D|---------------------------------------------------------------------14-12-14\12---|
A|-----------------------------------------------------------------------------------|
E|-----------------------------------------------------------------------------------|

E|----------------------------------------------------------------------------------------|
B|-----15-------------------12-------15~----13--12-----------12---------------------------|
G|--------14-----12-14-14-14---14-----------------14-12-12/14--14-12----------------------|
D|-------------------------------------------------------------------14-12-14\12-11--12---|
A|----------------------------------------------------------------------------------------|
E|----------------------------------------------------------------------------------------|

[Refrão]

        C    Em7   D
She's a time bomb, trying to take you out
    C             Em7           D
The ticking of her heart is the only sound
        C    Em7   D
She's a time bomb, about to detonate
    C          Em7       D              Bm  C
You try to cut her wires but you're way too late

        C    Em7   D
She's a time bomb, trying to take you out
    C             Em7           D
The ticking of her heart is the only sound
        C    Em7   D
She's a time bomb, about to detonate
    C          Em7       D              Bm  C
You try to cut her wires but you're way too late
00:00 / 00:00
Otros videos de esta canción
Repetir
Otros videos de esta canción
Composición de Iration
Colaboración y revisión:
  • Mateus Mattos
  • Jefferson Paula
86 vistas
    • ½ Tono
    • A
    • Bb
    • B
    • C
    • Db
    • D
    • Eb
    • E
    • F
    • F#
    • G
    • Ab
  • Agregar a la lista

    0 comentarios

    Ver todos los comentarios

    ¿Lograste tocar?

    0 Tocaron 1 Aún no

    ¡Graba un video tocando Time Bomb y envíanoslo!

    00:00 / 00:00
    OK