Cifra Club

Wait And See

Iration

Cifrado: Principal (guitarra y guitarra eléctrica)
tono: A
E|---9--9----7-7-7-7--|
B|---9--9----7-7-7-7--|
G|---9--9----8-8-8-8--|
D|---11-11---9-9-9-9--|
A|---11-11---9-9-9-9--|
E|---9--9----7-7-7-7--|

E|-------9-9----------------------------9-9-------------------|
B|---7-9-----9---7-7-9--7-7-9--5----7-9-----9---7-7-9--5/6/5--|
G|------------------------------------------------------------|  (2x)
D|------------------------------------------------------------|
A|------------------------------------------------------------|
E|------------------------------------------------------------|

     A    A     ?      B     A
E|---5-xx-5-xx--9--xx--7-xx--5--|
B|---5-xx-5-xx--9--xx--7-xx--5--|  A musica inteira
G|---6-xx-6-xx--9--xx--8-xx--6--|  segue esses acordes.
D|---7-xx-7-xx--11-xx--9-xx--7--|
A|---7-xx-7-xx--11-xx--9-xx--7--|
E|---5-xx-5-xx--9--xx--7-xx--5--|

I know we've always been a long shot,
I'm down to roll those dice.

I'll travel down that long hard road girl,
just to make you know that I tried

We might not make it in the end but,
we'll sure enjoy that ride

At least we'll have this song to remember,
the way wefelt that night.

(Refrão)
I'm all in til you make it with me
I'll read it written on that old marquee

Take a chance
just wait and you'll see
oooh Wait and See
E|-------9-9----------------------------9-9---7--7h9h7---------------------|
B|---7-9-----9---7-7-9--7-7-9--5----7-9-----9----------7h9--5h7--7/9/7-----|
G|-------------------------------------------------------------------------|
D|-------------------------------------------------------------------------|
A|-------------------------------------------------------------------------|
E|-------------------------------------------------------------------------|

E|------9-9----------------------------9-9-------------------|
B|--7-9-----9---7-7-9--7-7-9--5----7-9-----9---7-7-9--5/6/5--|
G|-----------------------------------------------------------|
D|-----------------------------------------------------------|
A|-----------------------------------------------------------|
E|-----------------------------------------------------------|

I know we've always been a long shot
I'm down to run all night

Travel through the rain and cold girl
Just to make you feel alright

We might not make it in the end but
We'll sure enjoy that ride

At least you'll have this song to remember
to remember me by

Refrão:
I'm all in til you make it with me
I'll read it written on that old marquee

Take a chance
just wait and you'll see
oooh Wait and See

I'm all in til you make it with me
I'll read it written on that old marquee

Take a chance
just wait and you'll see
oooh Wait and See
E|-----------------------------------------------------------|
B|---7/9/7---5/7/5-------------------------5/7--7/9/7--7-7---|
G|-------------------4/6/4------------4h6--------------------|
D|--------------------------2/4/2----------------------------|
A|-----------------------------------------------------------|
E|-----------------------------------------------------------|

E|-----------------------------------15b--15-15-15-15--------|
B|--7/9/7---5/7/5--------------------------------------------|
G|-----------------4/6/4-------------------------------------|
D|------------------------2/4/2------------------------------|
A|-----------------------------------------------------------|
E|-----------------------------------------------------------|

E|--7/9/7----------------------------------------------------|
B|--------7/9/7--5/7/5---------------------------------------|
G|-----------------------------------------------------------|
D|----------------------2/4/2--------------------------------|
A|-----------------------------------------------------------|
E|-----------------------------------------------------------|

I'm all in til you make it with me
I'll read it written on that old marquee

Take a chance
just wait and you'll see
oooh Wait and See

I'm all in til you make it with me
I'll read it written on that old marquee

Take a chance
just wait and you'll see
oooh Wait and See.
00:00 / 00:00
Otros videos de esta canción
Repetir
Otros videos de esta canción
Compositor no encontrado.
Colaboración y revisión:
  • Fabio Casetta
80 vistas
    • ½ Tono
    • A
    • Bb
    • B
    • C
    • Db
    • D
    • Eb
    • E
    • F
    • F#
    • G
    • Ab
  • Agregar a la lista

    0 comentarios

    Ver todos los comentarios

    ¿Lograste tocar?

    0 Tocaron 0 Aún no

    ¡Graba un video tocando Wait And See y envíanoslo!

    00:00 / 00:00
    OK