Cifra Club

Inna Godda Davida

Iron Butterfly

Cifrado: Principal (guitarra y guitarra eléctrica)
tono: C
Date: Sun, 26 Apr 1998 07:28:10 PDT
From: "Kristi M." 
Subject: i/iron_butterfly/*


transcribed by Kristi Metzger


Main Riff                     
[-------------------------[            [-------------------------[    
[-------------------------[            [-------------------------[
[-*---------------------*-[     OR     [-*-------------2-1-0---*-[
[-*-------------7-6-5---*-[            [-*-0-0-3-2---0-------3-*-[
[---5-5-8-7-3-5-------8---[            [-----------3-------------[
[----------(8)------------[            [-------------------------[


[---------[---------[---------[---------[
[---------[---------[---------[---------[
[---------[---------[---------[---------[
[---------[---6-7-6-[-7-8-7-6-[-7-6-----[
[-5-7-8-7-[-8-------[---------[-----8-7-[
[---------[---------[---------[---------[


[----------------------------------[----------------------------------
[----------------------------------[----------------------------------
[-*------------------------------*-[-*--------------------------------
[-*-5----5,-5-4-3-2-----2,-2-3-4-*-[-*-7------7,-7-6-5-4-----4,-4-5-6-
[----5-8------------2-5------------[-----7-10------------4-7----------
[----------------------------------[----------------------------------


[------------------------------------------[
[---7-12-11-10--11h12p11p10----------------[
[-8-------------------------------10-------[
[------------------------------12----11-12-[
[------------------------------------------[
[------------------------------------------[


Kristi Metzger
*
http://*~Terrapinstation2/*

===



From: * (matthew m. holladay)


It just isn't the same without someone on a keyboard, but here


There is the part everyone knows:
E-|---------------------------------------|
B-|---------------------------------------|
G-|-----------------------2--1--0---------|
D-|--0---0---3p2------0------------3------|
A-|---------------3-----------------------|
E-|---------------------------------------|
                                                                               
This is repeated over.. and over.. and over.......
For a little variety, sometimes change the last note
to a C (3rd fret, A string).  Doesn't add much, but
even a little helps.

                                                                               
The little ascending part:
E-|-------------------------------------------------------|
B-|-------------------------------------------------------|
G-|-----------------1--2--1--2--3--2--1--2--1h2p1---------|
D-|--0--2--3--2--3--------------------------------3--2----|
A-|-------------------------------------------------------|
E-|-------------------------------------------------------|

                                                                               
E-|----------------------------------------------------|
B-|----------------------------------------------------|
G-|----------------------------------------------------|
D-|--5--5--5-4-3-2--2--2-3-4-5--5--5-4-3-2--2-3-4-5----|
A-|----------------------------------------------------|
E-|----------------------------------------------------|

                                                                               
E-|-------------------------------------------|
B-|-------------------------------------------|
G-|--6--6--6-5-4-3--3-3-4-5-6--6--6-5-4-3-----|
D-|-------------------------------------------|
A-|-------------------------------------------|
E-|-------------------------------------------|

                                                                               
E-|---------7--6h7p6---------------------|
B-|--7vvv-------------9--7---------------|
G-|--8vvv-------------------9b11vvvrb9---|
D-|--9vvv--------------------------------|
A-|--------------------------------------|
E-|--------------------------------------|

And then just go back into the main part that repeats about
a trillion times.  Pretty simple song.  Two more notes:

For a solo, go heavy on the wah and stay in the D minor pentatonic
scale (hey, it's overused but in this case, you can't go wrong
playing this over that main riff).

see what kind of noises you can get your guitar to produce.

Have Fun
M Holladay
*
00:00 / 00:00
Otros videos de esta canción
Repetir
Otros videos de esta canción
Compositor no encontrado.
128 vistas
    • ½ Tono
    • A
    • Bb
    • B
    • C
    • Db
    • D
    • Eb
    • E
    • F
    • F#
    • G
    • Ab
  • Agregar a la lista

    0 comentarios

    Ver todos los comentarios
    00:00 / 00:00
    OK