Cifra Club

2 A.M.

Iron Maiden

Cifrado: Principal (guitarra y guitarra eléctrica)
tono: A
  Intro : (Clean sound , Better with a Classic Guitar)
-]-----------0------------0----------0-------------------------------
-]-------1-0----------1-0--------1-0----------1-0--------------------
-]-----------------------------2-------------------------------------
-]----2-------------2--------0-------------2-------------------------
-]--0-------------3----------------------0---------------------------
-]-------------------------------------------------------------------
   First guitar plays this part of the Intro ...
   And after 2 times (I think) the second guitar comes in to play riff2&3.


  Play Riff2&3 with Dist+Reverb 

  Riff2 :

-]--3h5-3--------3h5-3----------3h5-3-------------------------------
-]--------5-3----------5-3------------5-3---5-----------------------
-]------------5------------5--------------5-------------------------
-]------------------------------------------------------------------
-]------------------------------------------------------------------
-]------------------------------------------------------------------

  Riff3 :  
  
-]--3h5-3--------3h5-3--------3h5-3---------------------------------
-]--------5-3----------5-3----------5-3---1-------------------------
-]------------5------------5------------5---------------------------
-]------------------------------------------------------------------
-]------------------------------------------------------------------
-]------------------------------------------------------------------

-]--------------------------------------------------------------
-]--------------------------------------------------------------
-]--------------------------------------------------------------
-]--------------------------------------------------------------
-]--------------------------------------------------------------
-]--------------------------------------------------------------

-]-----------------------------------------------------------------
-]------------------------------------------7----------------------
-]----------------------7-----7-------------7----------------------
-]--7-----7---3-----3---7-----7---5-----5---5----------------------
-]--7-----7---3-----3---5-xxx-5---5-----5--------------------------
-]--5-xxx-5---1-xxx-1-------------3-xxx-3--------------------------

  Here I am Again ...


-]-----------------------------------------------------------------
-]-------1-----------------------1-----------------------1---------
-]-----2---2------------5------2---2-----------0-----0---2---------
-]---2-------2--------2------2-------2-------4-----2-----2---------
-]-0-----------0--3-5------0-----------0---5-----3-------0---------
-]-----------------------------------------------------------------

  Hold On the Strings (Block them , To get the Correct Sound)
-]-----------------------------------------------------------------
-]-----------------------------------------------------------------
-]-----------------------------7----7----------------7-------------
-]----7----7------3----3-----7---7--7-------5--------7-------------
-]--7---7--7----3---3--3---5--------------5---5-h-7--5-------------
-]-5-----------1------------------------3--------------------------

  Life Seems so Pathetic ...

-]-----------------------------------------------------------------
-]------------------------------------------7----------------------
-]----------------------7-----7-------------7----------------------
-]--7-----7---3-----3---7-----7---5-----5---5----------------------
-]--7-----7---3-----3---5-xxx-5---5-----5--------------------------
-]--5-xxx-5---1-xxx-1-------------3-xxx-3--------------------------

  Here I am Again ...

  Now Riffs 1,2,3 Again !
 

   This part is changing from time to time , sometimes they play it
   2 times or less , hear the song and get it right!
  __________________
  |                |
-]-----------------------------------------------------------------
-]-12-11-12-11-12-11-----------9---12-11---------------------------
-]--------------------8--8-9-9-------------------------------------
-]-----------------------------------------------------------------
-]-----------------------------------------------------------------
-]-----------------------------------------------------------------

   _________________
   |               |
-]-----------------------------------------------------------------
-]-12-11-12-11-12-11-----------9---16-14---------------------------
-]--------------------8--8-9-9-------------------------------------
-]-----------------------------------------------------------------
-]-----------------------------------------------------------------
-]-----------------------------------------------------------------

 SOLO
|----------------17-15-14----------|-19-17-------------|------------------|
|-15b17--15b17------------17-15-17-|-------20-19-20-19-|15-15-15-15-15----|
|----------------------------------|-------------------|------------------|
|----------------------------------|-------------------|------------------|
|----------------------------------|-------------------|------------------|
|----------------------------------|-------------------|------------------| 

|-19-19-20-17-19-15-17-14-15-12-14p-12----12|-19-17--------------------|
|-------------------------------------h15---|-------20-19-20-19--------|
|-------------------------------------------|-------------------19-----|
|-------------------------------------------|----------------------19--|
|-------------------------------------------|--------------------------|
|-------------------------------------------|--------------------------|

|-------|-------------17--------------17-|-19-17--------------------|
|-------|-17-17-19-20-----17-17-19-20----|-------20-19-20-19--------|
|-------|--------------------------------|-------------------19-----|
|-17-16-|--------------------------------|----------------------19--|
|-------|--------------------------------|--------------------------|
|-------|--------------------------------|--------------------------| 

|-------|-------------------------17-------------------|
|-17-16-|-17-17-19-20-19-17-19-20----20-19-20-19-17----|
|-------|-------------------------------------------19-|
|-------|----------------------------------------------|
|-------|----------------------------------------------|
|-------|----------------------------------------------| 

|-17----------------|----------------------------------|
|----20-19-20-19-17-|----------------------------------|
|-------------------|-19-------------------------------|
|-------------------|----------------------------------|
|-------------------|----------------------------------|
|-------------------|----------------------------------|
 
00:00 / 00:00
Otros videos de esta canción
Repetir
Otros videos de esta canción
Composición de Blaze Bayley / Janick Gers / Steve Harris
Colaboración y revisión:
  • Jhosef Carvalho
499 exhibiciones
    • ½ Tono
    • A
    • Bb
    • B
    • C
    • Db
    • D
    • Eb
    • E
    • F
    • F#
    • G
    • Ab
  • Agregar a la lista
    00:00 / 00:00
    OK