Cifra Club

Can I Play With Madness

Iron Maiden

Chords: Principal (acoustic and electric guitars)
tone: D
Introdução: D5  C9  G5  ( D4  D  D4  D  D4 )

(Guitarra 1)

   D5
     P.M. . . . . . . . . . .
E|------------------------------------------|
B|-3----------------------------------------|
G|-2----------------------------------------|
D|-0--0-0-0-0-0-0-0-0-0-0-0-0---------------|
A|------------------------------------------|
E|------------------------------------------|

   C9
     P.M. . .    . . . .
E|------------------------------------------|
B|-3----------8-----------------------------|
G|-0----------7-----------------------------|
D|-0--0-0-0-0-5--0-0-0-0--------------------|
A|-3----------------------------------------|
E|------------------------------------------|

   G5                D4 D  D4 D  D4
                P.M.
E|-3-------------x-x-3--2--3--2--3----------|
B|-3-------------x-x-3--3--3--3--3----------|
G|-0-------------x-x-2--2--2--2--2----------|
D|-0-------------x-x-0--0--0--0--0----------|
A|------------------------------------------|
E|-3----------------------------------------|

(Guitarra 2)

  P.M. . . . . . . . . . . . . . .
E|------------------------------------------|
B|------------------------------------------|
G|------------------------------------------|
D|-0-0-0-0-0-0-0-0-0-0-0-0-0-0-0-0----------|
A|------------------------------------------|
E|------------------------------------------|


Primeira Parte:

   D5
     P.M. . . . . . . . . . .
E|-2----------------------------------------|
B|-3----------------------------------------|
G|-2----------------------------------------|
D|-0--0-0-0-0-0-0-0-0-0-0-0-0---------------|
A|------------------------------------------|
E|------------------------------------------|

   C9
     P.M. . . . . . . . . . .
E|------------------------------------------|
B|-3----------------------------------------|
G|-0----------------------------------------|
D|-0--0-0-0-0-0-0-0-0-0-0-0-0---------------|
A|-3----------------------------------------|
E|------------------------------------------|

   G5
     P.M. . . . . . . . . . . . .
E|------------------------------------------|
B|-3----------------------------------------|
G|-0----------------------------------------|
D|-0--0-0-0-0-0-0-0-0-0-0-0-0-0-0-----------|
A|------------------------------------------|
E|-3----------------------------------------|

   D4 D  D4 D  D4
E|-3--2--3--2--3----------------------------|
B|-3--3--3--3--3----------------------------|
G|-2--2--2--2--2----------------------------|
D|-0--0--0--0--0----------------------------|
A|------------------------------------------|
E|------------------------------------------|

D5                          C9
   Give me the sense to wonder
    G5
To wonder if I'm free

( D4  D  D4  D  D4 )

D5                          C9
   Give me the sense to wonder
     G5
To know I can be me

( D4  D  D4  D  D4 )

D5
   Give me the strength
    C9
To hold my head up
  G5
Spit back in their face

( D4  D  D4  D  D4 )

D5
   Don't need no key
   C9
To unlock this door
        G5
Gonna break down the walls
      D5           A5   D5  A5  D5  A5
Break out of this bad place

   D5 A5 D5 A5 D5 A5
E|------------------------------------------|
B|-3-----3-----3----------------------------|
G|-2--2--2--2--2--2-------------------------|
D|-0--2--0--2--0--2-------------------------|
A|----0-----0-----0-------------------------|
E|------------------------------------------|


Primeiro Refrão:

   B5             G5
          P.M.  .        . .   .
E|------------------------------------------|
B|------------------------------------------|
G|-4--4-4-----4---0--0-0-----0--------------|
D|-4--4-4-----4---0--0-0-----0--------------|
A|-2--2-2-2-2-2-2---------------------------|
E|----------------3--3-3-3-3-3-3------------|

   D5             A5
          P.M.  .      
E|------------------------------------------|
B|-3--3-3-----3--------3-2-0----------------|
G|-2--2-2-----2---2--2-------2--------------|
D|-0--0-0-0-0-0-0-2--2---------4------------|
A|----------------0--0----------------------|
E|------------------------------------------|

   B5             G5
          P.M.  .        . .   .
E|------------------------------------------|
B|------------------------------------------|
G|-4--4-4-----4---0--0-0-----0--------------|
D|-4--4-4-----4---0--0-0-----0--------------|
A|-2--2-2-2-2-2-2---------------------------|
E|----------------3--3-3-3-3-3-3------------|

   E5
          P.M.  .       
E|------------------------------------------|
B|------------------------------------------|
G|------------------------------------------|
D|-2--2-2-----2---2--2----------------------|
A|-2--2-2-----2---2--2-----0-2-0------------|
E|-0--0-0-0-0-0-0-0--0-2-3------------------|

 B5              G5
Can I play with madness?
         D5
The prophet stared 
                    A5
At his crystal ball
B5                  G5
   Can I play with madness?
         E5
There's no vision there at all
B5                  G5
   Can I play with madness?
         D5
The prophet looked
                   A5
And he laughed at me
B5                  G5
   Can I play with madness?
                 D5  A5
He said you're blind
      D5   A5    D5  A5
Too blind to see

(Riff do Refrão)

E|-----10----12----14--------10----12----14------------|
B|-/10----10----10----10--10----10----10----10---------|
G|-----------------------------------------------------|
D|-----------------------------------------------------|
A|-----------------------------------------------------|
E|-----------------------------------------------------|

E|----10----12----14--------10-9-----------------------|
B|-10----10----10----10--10------12-10----10-----------|
G|-------------------------------------11--------------|
D|-----------------------------------------------------|
A|-----------------------------------------------------|
E|-----------------------------------------------------|

E|-----10----12----14--------10----12----14------------|
B|-/10----10----10----10--10----10----10----10---------|
G|-----------------------------------------------------|
D|-----------------------------------------------------|
A|-----------------------------------------------------|
E|-----------------------------------------------------|
  
E|----10----12----14-----------------------------------|
B|-10----10----10----10----------10-12-10-10-----------|
G|-----------------------9-11-12-----------------------|
D|-----------------------------------------------------|
A|-----------------------------------------------------|
E|-----------------------------------------------------|


Segunda Parte:

D5
   I screamed aloud 
       C9
To the old man
              G5
I said don't lie

Don't say you don't know

( D4  D  D4  D  D4 )

D5
   I say you'll pay 
          C9
For your mischief
     G5
In this world, or the next

( D4  D  D4  D  D4 )

D5
Oh then he fixed me 
         C9
With a freezing glance
         G5
And the hellfires 

Raged in his eyes

( D4  D  D4  D  D4 )

                D5
He said do you want to know 

The truth son
     C9
I'll    tell you the truth
      G5
Your soul's gonna burn
      D5      A5  D5  A5  D5  A5
In a lake of fire


Segundo Refrão:

 B5              G5
Can I play with madness?
         D5
The prophet stared 
                    A5
At his crystal ball
B5                  G5
   Can I play with madness?
         E5
There's no vision there at all
B5                  G5
   Can I play with madness?
         D5
The prophet looked
                   A5
And he laughed at me
B5                  G5
   Can I play with madness?
                 D5  A5
He said you're blind
      D5   A5    D5  A5
Too blind to see


Base do Solo:

(Parte 1 – 2x)

E|------------------------------------------|
B|------------------------------------------|
G|------------------------------------------|
D|-/2--2-2-2-0---5--x-x-x-x-----------------|
A|-------------2-5--x-x-x-x-----------------|
E|---------------3--x-x-x-x-----------------|

E|------------------------------------------|
B|------------------------------------------|
G|------------------------------------------|
D|-/2--2-2-2-0---5--7-----------------------|
A|-------------2-5--7-----------------------|
E|---------------3--5-----------------------|

(Parte 2 - 2x)

E|------------------------------------------|
B|------------------------------------------|
G|---------------3--x-x-x-x-----------------|
D|-/5--5-5-5-3-0-3--x-x-x-x-----------------|
A|---------------1--x-x-x-x-----------------|
E|------------------------------------------|

E|------------------------------------------|
B|------------------------------------------|
G|---------------3--5-----------------------|
D|-/5--5-5-5-3-0-3--5-----------------------|
A|---------------1--3-----------------------|
E|------------------------------------------|

(Parte 3 – 2x)

E|------------------------------------------|
B|------------------------------------------|
G|------------------------------------------|
D|-/2--2-2-2-0---5--x-x-x-x-----------------|
A|-------------2-5--x-x-x-x-----------------|
E|---------------3--x-x-x-x-----------------|

E|------------------------------------------|
B|------------------------------------------|
G|------------------------------------------|
D|-/2--2-2-2-0---5--7-----------------------|
A|-------------2-5--7-----------------------|
E|---------------3--5-----------------------|

(Parte 4 - 3x)

E|------------------------------------------|
B|------------------------------------------|
G|------------------------------------------|
D|-5--5-------------------------------------|
A|-5--5-------------------------------------|
E|-3--3-------------------------------------|


Solo:

E|-------15-------------------------15b17~-15b17~-15b17|
B|15b17-----15b17--15b17~--15b17r12--------------------|
G|-----------------------------------------------------|
D|-----------------------------------------------------|
A|-----------------------------------------------------|
E|-----------------------------------------------------|

E|-----------------------------------------------------|
B|-----------------------------------------------------|
G|-2b4~--2b4r2p0-2-0-2b4r2p0-2-2b4r2~~-----------------|
D|-----------------------------------------------------|
A|-----------------------------------------------------|
E|-----------------------------------------------------|

E|-----------------------------22-22b24~~--------------|
B|-----20-22-22b24r22p20-22-20-------------------------|
G|-/19-------------------------------------------------|
D|-----------------------------------------------------|
A|-----------------------------------------------------|
E|-----------------------------------------------------|

E|-----------------------------------------------------|
B|-----------------------------------------------------|
G|----15-17-17b19r17p15-17-17-15~~---------------------|
D|-17--------------------------------------------------|
A|-----------------------------------------------------|
E|-----------------------------------------------------|

E|-----------------------------------------------------|
B|-----------------------------------------------------|
G|-3\--------------------------------------------------|
D|-3\--------------------------------------------------|
A|-----------------------------------------------------|
E|---------------------x\------------------------------|


Terceiro Refrão:

 B5              G5
Can I play with madness?
         D5
The prophet stared 
                    A5
At his crystal ball
B5                  G5
   Can I play with madness?
         E5
There's no vision there at all
B5                  G5
   Can I play with madness?
         D5
The prophet looked
                   A5
And he laughed at me
B5                  G5
   Can I play with madness?
                 D5  A5
He said you're blind
      D5   A5    D5  A5
Too blind to see
00:00 / 00:00
Other videos of this song
Repeat
Other videos of this song
Composed by Adrian Smith / Bruce Dickinson / Steve Harris
Collaboration and Review:
  • Vinícius Dias
  • willian paulino
1.226 views
    • ½ Tone
    • A
    • Bb
    • B
    • C
    • Db
    • D
    • Eb
    • E
    • F
    • F#
    • G
    • Ab
  • Add to list
    00:00 / 00:00
    Chapters
    • Tocando a música
    • Dicas Iniciais / Equipamentos
    • Acordes da Introdução
    • Tocando a Introdução
    • Introdução - Guitarra 1
    • Introdução - Guitarra 2
    • Acordes da Primeira Parte
    • Tocando a Primeira Parte
    • Primeira Parte
    • Passagem para o Refrão
    • Acordes do Refrão
    • Tocando o Primeiro Refrão
    • Refrão - Parte 1 de 2
    • Refrão - Parte 2 de 2
    • Riff do Refrão - Parte 1 de 2
    • Riff do Refrão - Parte 2 de 2
    • Dicas 2
    • Tocando o Solo
    • Base do Solo - Parte 1 de 4
    • Base do Solo - Parte 2 de 4
    • Base do Solo - Parte 3 de 4
    • Base do Solo - Parte 4 de 4
    • Tocando a Base do Solo
    • Solo - Parte 1 de 5
    • Solo - Parte 2 de 5
    • Solo - Parte 3 de 5
    • Solo - Parte 4 de 5
    • Solo - Parte 5 de 5
    • Encerramento
    • Ficha Técnica
    OK