Cifra Club

Purgatory

Iron Maiden

Cifrado: Principal (guitarra y guitarra eléctrica)
tono: D
This is the intro riff:

                                                   4x                   
E---||---------------------------------------------||-------------------
B---||---------------------------------------------||-------------------
G---||*----------------------------0--------------*||-------------------
D---||*----4------0----4------4--------------2----*||-------------------
A---||-----0h2---------2p0----2---------5----0-----||-------------------
E---||----------------------------------3----------||-------------------

Then play this (one guitar plays the top notes, another plays the 
bottom notes):

                                                              4x        
E---||--------------------2-----------------------------------||--------
B---||-------------------------3---------2----3----2----------||--------
G---||*----2----4---------2----4---------2----4----2----4----*||--------
D---||*----2----4---------------------------------------4----*||--------
A---||--------------------------------------------------------||--------
E---||--------------------------------------------------------||--------

Then the vocals start. Play the above riff 3 times, then play this:

                                                               4x       
E---||---------------------------------------------------------||-------
B---||---------------------------------------------------------||-------
G---||*-----------------------------------6-------4-------2---*||-------
D---||*-----------------------------------4-------2-------0---*||-------
A---||----2---2---2---2---2---2---2---2------------------------||-------
E---||---------------------------------------------------------||-------

Then the second verse starts. Play this 7 times:

E---||--------------------2-----------------------------------||--------
B---||-------------------------3---------2----3----2----------||--------
G---||*----2----4---------2----4---------2----4----2----4----*||--------
D---||*----2----4---------------------------------------4----*||--------
A---||--------------------------------------------------------||--------
E---||--------------------------------------------------------||--------

Then play this again:

                                                               4x       
E---||---------------------------------------------------------||-------
B---||---------------------------------------------------------||-------
G---||*-----------------------------------6-------4-------2---*||-------
D---||*-----------------------------------4-------2-------0---*||-------
A---||----2---2---2---2---2---2---2---2------------------------||-------
E---||---------------------------------------------------------||-------

Then one guitar plays this:

E---||------------------------|-----------------------|-----------------
B---||------------------------|-----------------------|-----------------
G---||*-----------------------|-----------0-----------|-----------------
D---||*---0-------0---2---3---|---------------3---2---|-----------------
A---||------------------------|---1-------------------|-----------------
E---||------------------------|-----------------------|-----------------
 
                                                       2x               
E-----------------------|----------------
00:00 / 00:00
Otros videos de esta canción
Repetir
Otros videos de esta canción
Composición de Steve Harris
215 exhibiciones
    • ½ Tono
    • A
    • Bb
    • B
    • C
    • Db
    • D
    • Eb
    • E
    • F
    • F#
    • G
    • Ab
  • Agregar a la lista
    00:00 / 00:00
    OK