Cifra Club

The Wicker Man

Iron Maiden

Cifrado: Principal (guitarra y guitarra eléctrica)
tono: A
Essa musica é bem legal de se tocar, é questão de treino!

Intro - Guitarra 1: (O primeiro acorde é abafado)
     E5                                                    C5     G5
|----------------------------------------------------------------------------|
|----------------------------------------------------------------------------|
|---x-9-9--------------9--9--------------9--9---------------5--5---12--12----|
|---x-9-9--------------9--9--------------9--9---------------5--5---12--12----|
|---x-7-7--------------7--7--------------7--7---------------3--3---10--10----|
|--------x-x-x-x-x---------x-x-x-x-x----------x-x-x-x-x----------------------|

Depois dessa parte entra a guitarra 2 q é bem parecida:
     E5                                                    C5     G5
|---------------------------------------------------------------------------|
|---------------------------------------------------------------------------|
|----9-9--------------9--9--------------9--9---------------5--5---12--12----|
|----9-9--------------9--9--------------9--9---------------5--5---12--12----|
|----7-7--------------7--7--------------7--7---------------3--3---10--10----|
|---------------------------------------------------------------------------|

Depois disso entra o segundo verso:

    D5   E5 D5    G5     F#5 E5  D5  E5 C5 G5    C5
|---7----9-5------12--12--11--9--7---9--5--------5--5---
|---7----9-5------12--12--11--9--7---9--5--5--5--5--5-- 2x
|---5----7-3------10--10---9--7--5---7--3--5--5--3--3---
|------------------------------------------3--3---------

Refrão:

Guitarra 2:

   E5             C5             G5             A5
|--------------------------------------------------------------
|--------------------------------------------------------------
|--------------------------------------------------------------
|--9-9-9-9-9-9----5-5-5-5-5-5-------------------2-2-2-2-2-2----
|--7-7-7-7-7-7----3-3-3-3-3-3----5-5-5-5-5-5----0-0-0-0-0-0----
|--------------------------------3-3-3-3-3-3-------------------

   E5             G5             C5            G5      A5
|------------------------------------------------------------
|------------------------------------------------------------
|------------------------------------------------------------
|--9-9-9-9-9-9-------------------5-5-5-5-5-5-----------2-2---
|--7-7-7-7-7-7----5-5-5-5-5-5----3-3-3-3-3-3----5-5-5--0-0---
|-----------------3-3-3-3-3-3-------------------3-3-3--------

Guitarra 1:

|-----------------------------------------------------------------------|
|12-10-12-10-12----12-10-12-10-12----12-10-12-10-12----12-10-12-13-12---|
|---------------12----------------12----------------12----------------12|
|-----------------------------------------------------------------------|4x
|-----------------------------------------------------------------------|
|-----------------------------------------------------------------------|

Agora repete a musica toda até o refrão de novo, e agora vem a parte dos riffs
e solos da musica:

Pré-solo

D|------------7-----7-----7-9----7-9-10-9p7----------------
A|7—7-9-10-7---9-10--9-10-----10------------10-7---—9-10-7-

|-0-0-12-10—-0-0-12-14—0-0-0-14-15-17-15p14------------------
|-------------------------------------------17-17~-----------
|------------------------------------------------------------
|------------------------------------------------------------
|--------------------------------------------------7—9-10-7--

--7-----7-----7-9----7-9-10-9p7----------------
---9-10--9-10-----10------------10-7---—9-10-7-

|-0-0-12-10—-0-0-12-14—0-0-0-14-15-17-15p14------------------
|-------------------------------------------17-17~-----------

Solo principal


E|----------------7-8-10-7---7---7----7---7----7-----------
B|--10b12r10b12-----------10---8---10---8---10------7------
G|------------------------------------------------9---8—---
D|---------------------------------------------------------
A|---------------------------------------------------------
E|---------------------------------------------------------

E|--------7-----7--------------------------------------------
B|-10b12---10-7-------7--------------------------------------
G|---------------9b11--9-9-7---9-7---------------------------
D|---------------------------9---------7--------7------------
A|---------------------------------9-7---10-8-7---10-9-7-----

B|-----------------------------------7-----------7-------------------------------
G|------------------------------------8--------8---8—--------8-------------------
D|-----------7-----------7-------------10-7-10-------10-7-10---10-7----7-10-7----
A|-6h7-6h7-----9-7-6-7-9---9-7-6-7-9-------------------------------9—9-------9---
E|---------7--------------------------------------------------------11--------11-

E|----------------------------------------------17-19-20-19p17—17--------------17--------
B|-------------------------------------17-19-20---------------20—20-19-17-19-20—20-19-17-
G|-12t-h7p0-12t-h7p0-12t-h7p0—12t-h7p0---------------------------------------------------

E|-------------------17-19-20-19p17---17-------------------------------
B|20-19-17—-17-19-20----------------20--20-19-17h19p17/13-------13—-12-

|-0-0-12-10—-0-0-12-14—0-0-0-14-15-17-15p14------------------
|-------------------------------------------17-17~-----------
|------------------------------------------------------------
|------------------------------------------------------------
|--------------------------------------------------7—9-10-7--

D|------------7-----7-----7-9----7-9-10-9p7----------------
A|7—7-9-10-7---9-10--9-10-----10------------10-7---—9-10-7-

|-0-0-12-10—-0-0-12-14—0-0-0-14-15-17-15p14------------------
|-------------------------------------------17-17~-----------
|------------------------------------------------------------
|------------------------------------------------------------
|--------------------------------------------------7—9-10-7--


Obs: como vcs sabem, os guitarristas do maiden são uns dos melhores e mais
criativos do planeta, intão é praticamente impossível tirar solos deles
perfeitamente, isso é o q chamo de instinto.
Se preferir, vc pode improvisar nos modos Jônio e Dórico.


Agora logo em seguida ao solo vem o refrão q fica a mesma coisa com a
guitarra solo e a base:

   E5             C5            G5                    D5
|---------------------------------------------------------------------
|---------------------------------------------------------------------
|---------------------------------------------------------------------
|--9-9-9-9-9-9----5-5-5-5-5-5----12-12-12-12-12-12----7-7-7-7-7-7-----
|--7-7-7-7-7-7----3-3-3-3-3-3----10-10-10-10-10-10----5-5-5-5-5-5-----
|---------------------------------------------------------------------

  E5            G5                    C5             D5
-------------------------------------------------------------------|
-------------------------------------------------------------------|
-------------------------------------------------------------------|
--9-9-9-9-9-9----12-12-12-12-12-12----5-5-5-5-5-5----7-7-7-7-7-7---|
--7-7-7-7-7-7----10-10-10-10-10-10----3-3-3-3-3-3----5-5-5-5-5-5---|
-------------------------------------------------------------------|

|-----------------------------------------------------------------------|
|12-10-12-10-12----12-10-12-10-12----12-10-12-10-12----12-10-12-14-12---|
|---------------12----------------12----------------12----------------12|
|-----------------------------------------------------------------------|
|-----------------------------------------------------------------------|
|-----------------------------------------------------------------------|


E pra terminar, a ultima parte da musica onde o Bruce canta “wow o o ow,
wow o o ow, wow o o ôôw” (hahahaha) fica a guitarra base do refrão, depois
de repetir 2x os acordes abaixo, entra um riffizinho no fundo:

Final:

   E5     C5     G5       D5
|--------------------------------------|
|--------------------------------------|
|--9-9----5-5----12-12----7-7----------|
|--9-9----5-5----12-12----7-7----------|
|--7-7----3-3----10-10----5-5----------|
|--------------------------------------|

|-----------------------------------------------|
|-----------------------------------------------|
|-----------------------------------------------|
|--5-4-5-7/--5-4-5-7/--5-4-5-7/--5-4-2----------|
|--------------------------------------5--------|
|-----------------------------------------------|

|-----------------------------------------|
|-----------------------------------------|
|-----------------------------------------|
|--5-4-5-7/--5-4-5-7/--5-4-5-7/-7---------|
|-------------------------------5---------|
|-----------------------------------------|

D|--9-7-9-10\--9-7-9-10\--9-7-9-10\--9-7-5-4
A|------------------------------------------

D|--9-7-9-10\--9-7-9-10\--9-7-9-10\--7
-------------------------------------5

*************************************************************

                                   The Wicker Man
                                   (Iron Maiden)

(intro)
Hand of fate is moving and the finger points to you
He knocks you to your feet and so what are you gonna do
Your tongue has frozen now you've got something to say
The piper at the gates of dawn is calling you his way

(Segundo verso)
You watch the world exploding every single night
Dancing in the sun a new born in the light
Say goodbye to gravity and say goodbye to death
Hello to eternity and live for every breath

Refrão

Your time will come
Your time will come
Your time will come
Your time will come

(Intro)
The ferryman wants his money you ain't gonna give it back
He can push his own boat as you set off up the track
Nothing you can contemplate will ever be the same
Every second is a new spark, sets the universe aflame

(Segundo verso)
You watch the world exploding every single night
Dancing in the sun a new born in the light
Brothers and their fathers joining hands to make a chain
The shadow of the Wicker man is rising up again

Refrão

Your time will come
Your time will come
Your time will come
Your time will come

(Pré-solo)

(Solo)

Refrão
Your time will come
Your time will come

Final

Wo o o ow!
Wo o o ow!
Wo o o ow!
Wo o o ow.

Wo o o ow!
Wo o o ow!
Wo o o ow!
Wo o o o...
00:00 / 00:00
Otros videos de esta canción
Repetir
Otros videos de esta canción
Composición de Adrian Smith / Bruce Dickinson / Steve Harris
Colaboración y revisión:
  • João Davanço
  • Mozarth Ferreira
  • Roberto Vale
1.279 vistas
    • ½ Tono
    • A
    • Bb
    • B
    • C
    • Db
    • D
    • Eb
    • E
    • F
    • F#
    • G
    • Ab
  • Agregar a la lista

    0 comentarios

    Ver todos los comentarios

    ¿Lograste tocar?

    12 Tocaron 2 Aún no

    ¡Graba un video tocando The Wicker Man y envíanoslo!

    00:00 / 00:00
    OK