Cifra Club

Love And Some Verses

Iron & Wine

Cifrado: Principal (guitarra y guitarra eléctrica)
tono: E (con acordes en la forma de D) Capotraste en 2ª casa
Afinação: DADGBe
Capo na 2ª casa

INTRO: essa parte é tocada durante toda a música exceto durante a PONTE e o SOLO 2.

G1: 
 (                     2X                         )(          4X           ) 
  Asus9                                             Bm7
e|----------------------0-------------------------|------------------------| 
B|----------0-----------------------0-----------0-|----------0-----------0-| 
G|----2-----------2-----------2-----------2-------|----2-------------------| 
D|-------2-----------2-----------2-----------2----|-------0-----------0----| 
A|-0-----------0-----------0-----------0----------|-------------0h-2-------| 
D|------------------------------------------------|-0----------------------|     

Bridge 

G1:
   D                           A
e|-----------------------------------------------------0---------------| 
B|-3--3--------3--------5p3--3p2--2--------0-----------------------3p2-| 
G|-4-----4--------4---------------2--2-----------2-----------2---------| 
D|-0--------0--------0------------2-----2-----------2-----------2------| 
A|-5------------------------------------------0-----------0------------| 
D|---------------------------------------------------------------------|  
   D                           A
e|--------------------------------------------------0--------------------------------------0-------|
B|-3--3--------3--------5p3--3p2--2-------0--------------------0--------0--2------0--------------2-|
G|-4-----4--------4---------------2--2---------2----------2--------2-------2--2-------2-------2----|
D|-0--------0--------0------------2-----2---------2----------2--------2----2----2--------2---------|
A|-5----------------------------------------0----------0---------0------------------0--------------|
D|-------------------------------------------------------------------------------------------------|

Solo 

G2:
 (                    2X                      )(                   2X                     )
e|--------------------------------------------|-------------------------------------------|
B|--------------------------------------------|-------------------------------------------|
G|--------------------------------------------|-6---7/9---9---/7\6--6\2--2---1/2--2---6/7-| 
D|-7--9/11-11--/9\7-7\4-4---2/4-4---7/9-9\7-7-|-7---9/11--11--/9\7--7\4--4---2/4--4---7/9-| 
A|--------------------------------------------|-------------------------------------------|
D|--------------------------------------------|-------------------------------------------|

e|------------------------------------------------------------------------| 
B|------------------------------------------------------------------------| 
G|--------------------------------------------------------------9---------| 
D|-9/12-12---14\12-12\11-11--/12\11\--7/12---14\12-12\11-11-----11--7--11-| 
A|------------------------------------------------------------------------| 
D|------------------------------------------------------------------------|

INTRO X2 

PARTE 1:

Love is a dress that you made 
Long to hide your knees love to say this to your face 
"I'll love you only" 
For your days and excitement 
What will you keep for to wear? 
Someday drawing you different 
May I be weaved in your hair? 

PONTE 

SOLO: (com a INTRO) 

PARTE 2: 

Love and some verses you hear 
Say what you can't say 
Love to say this in your ear, 
"I'll love you that way" 
From your changing contentments, 
What will you choose for to share? 
Someday drawing you different, 
May I be weaved in your hair? 

SOLO 2:
  
G2:
e|----------------------------------------------------------| 
B|----------------------------------------------------------| 
G|----------------------------------------------------------| 
D|-9/12-12---14\12-12\11-11--/12\11\--7/12---14\12-12\11-11-| 
A|----------------------------------------------------------| 
D|----------------------------------------------------------| 

 
G1:
 (                      4X                        )    
e|----------------------0-------------------------| 
B|----------0-----------------------0-----------0-| 
G|----2-----------2-----------2-----------2-------| 
D|-------2-----------2-----------2-----------2----| 
A|-0-----------0-----------0-----------0----------| 
D|------------------------------------------------|
Compositor no encontrado.
Colaboración y revisión:
  • João Vidal
48 vistas
    • ½ Tono
    • A
    • Bb
    • B
    • C
    • Db
    • D
    • Eb
    • E
    • F
    • F#
    • G
    • Ab
  • Agregar a la lista

    0 comentarios

    Ver todos los comentarios

    ¿Lograste tocar?

    0 Tocaron 0 Aún no

    ¡Graba un video tocando Love And Some Verses y envíanoslo!

    00:00 / 00:00
    Otros videos de esta canción
    Repetir Calidad Automático
    Otros videos de esta canción
    00:00 / 00:00
    Automático
    OK