Cifra Club

Naked as We Came

Iron & Wine

Cifrado: Principal (guitarra y guitarra eléctrica)
tono: D
A corda E grave deve ser afinada em C# para que o dedilhado seja efetuado.

     D9                                Em9
E|---------------------------------|---------------------------------|
B|-------3-------3-------3-------0-|-------0-------0-------0-------0-|
G|---0-------0-------0-------0-----|---0-------0-------0-------0-----|
D|-----4-------4-------4-------4---|-----0-------0-------0-------0---|
A|-5---------------0---------------|-----------------2-------0-------|
D|---------0---------------0-------|-2-------4-----------------------|

       A9
E|---------------0-----------------|
B|-------0-----------0---0-------0-|
G|---2-------2---------------2-----|
D|-----2-------2-------2-------2---|
A|-0-------0-------0-------0-------|
D|---------------------------------|

INTRO:
  (                              4X                                  )
      D9                                Em9
E|---------------------------------|---------------------------------|
B|-------3-------3-------3-------0-|-------0-------0-------0-------0-|
G|---0-------0-------0-------0-----|---0-------0-------0-------0-----|
D|-----4-------4-------4-------4---|-----0-------0-------0-------0---|
A|-5---------------0---------------|-----------------2-------0-------|
D|---------0---------------0-------|-2-------4-----------------------|

PARTE 1:
D9                  Em9
She says, "wake up, it's no use pretending"
D9                  Em9
I'll keep stealing, breathing her
D9                Em9
birds are leaving over autumn's ending
D9             Em9
One of us will die inside these
A9
arms
Em9               A9
eyes wide open, 
Em9              A9
naked as we came
Em9                 A9
one will spread our 
Em9                  D9
ashes around the yard

PONTE: D9   Em9   (X2)

PARTE 2:
D9              Em9
She says, "if I leave before you, darling,
D9                 Em9
Don't you waste me in the ground"
D9            Em9
I lay smiling like our sleeping children
D9             Em9
One of us will die inside these 
A9
arms
Em9        A9
Eyes wide open,
Em9          A9
Naked as we came
Em9                 A9
One will spread our    
Em9
Ashes around the yard
Composición de Samuel Ervin Beam
Colaboración y revisión:
  • Romulo Goncalves
  • Robério Filho
  • João Vidal
241 vistas
    • ½ Tono
    • A
    • Bb
    • B
    • C
    • Db
    • D
    • Eb
    • E
    • F
    • F#
    • G
    • Ab
  • Agregar a la lista

    0 comentarios

    Ver todos los comentarios

    ¿Lograste tocar?

    2 Tocaron 0 Aún no

    ¡Graba un video tocando Naked as We Came y envíanoslo!

    00:00 / 00:00
    Outros vídeos desta música
    Repetir Calidad Automático
    Outros vídeos desta música
    00:00 / 00:00
    Automático
    OK