Cifra Club

Papa, cuéntame otra vez

Ismael Serrano

Cifrado: Principal (guitarra y guitarra eléctrica)
tono: E
E|------------------------------| PARTE A -----------------------------|

E|-----2^3^2-------2-|----------3--|----------------3--|-----------2--|
B|------------3------|-------3-----|-------------3-----|--------3-----|
G|--------------2----|-------0-----|-------------0-----|-----2--------|
D|--0----------------|----2--------|----------0--------|--0-----------|
A|-------------------|-0-----------|-------------------|--------------|
E|-------------------|-------------|--0^2--3-----------|--------------|

E|-----------2--|----------2--------|-----------2--|-----------3--|
B|--------3-----|-----2^3-----3-----|--------2-----|--------0-----|
G|-----2--------|----------------4--|--------2-----|--------0-----|
D|--------------|-------------------|-----4--------|-----0--------|
A|--4-----------|--2----------------|--------------|--------------|
E|--------------|-------------------|--2-----------|--3-----------|

E|-------------0--|
B|--------2^3-----|
G|--------0-------|
D|-----2----------|
A|--0-------------|
E|----------------|

E|------------------------------| PARTE B --------------------------|

E|----------------3--|-------------0--|-----------2------------2--|
B|-------------3-----|--------2^3-----|--------3------------3-----|
G|-------------0-----|--------0-------|-----2------------2--------|
D|----------0--------|-----2----------|--0------------------------|
A|-------------------|--0-------------|---------------4-----------|
E|--0^2--3-----------|----------------|---------------------------|

E|----------2--|
B|-----2^3-----|
G|-------------|
D|-------------|
A|--2----------|
E|-------------|

E|------------------------------| PARTE C --------------------------|

E|----------------3--|-------------0--|----------2---------------|
B|-------------3-----|--------2^3-----|-----2^3-----3------------|
G|-------------0-----|--------0-------|----------------4---------|
D|----------0--------|-----2----------|--------------------------|
A|-------------------|--0-------------|--2-----------------------|
E|--0^2--3-----------|----------------|--------------------------|

E|-----------2--|-----------3--|-----------3--|-------------0--|
B|--------2-----|--------0-----|--------0-----|--------2^3-----|
G|--------2-----|--------0-----|--------0-----|--------0-------|
D|-----4--------|-----0--------|-----0--------|-----2----------|
A|--------------|--------------|--------------|--0-------------|
E|--2-----------|--3-----------|--3-----------|----------------|

E|-------------0--|
B|--------2^3-----|
G|--------0-------|
D|-----2----------|
A|--0-------------|
E|----------------|


Os pongo la letra con sus partes:

Papá cuéntame otra vez ese cuento tan bonito               |  PARTE A
de gendarmes y fascistas y estudiantes con flequillo            |
y dulce guerrilla urbana en pantalones de campana
y canciones de los rolling y niñas en minifalda      .
Papá cuéntame otra vez todo lo que os divertísteis
estropeando la vejez a oxidados dictadores
y como cantaste al vent y ocupasteis la Sorbona
en aquel mayo francés en los días de vino y rosas

papá cuéntame otra esa historia tan bonita                  |  PARTE B
de aquel guerrillero loco que mataron en bolivia            |
y cuyo fusil ya nadie se atrevió a tomar de nuevo
y como desde aquel día todo parece más feo
papá cuéntame otra vez que tras tanta barricada
y tras tanto puño en alto y tanta sangre derramada

al final de la partida no pudísteis hacer nada                  |  PARTE C
y bajo los adoquines no había arena de playa                  |

fue muy dura la derrota todo lo que se soñaba                  |  PARTE A
se pudrió en los rincones se cubrió de telarañas            |
y ya nadie canta al vent ya no hay locos ya no hay parias
pero tiene que llover aún sigue sucia la plaza

E               B             A             E 
queda lejos aquel mayo queda lejos saint denis
            C#m            G#m          A           B 
que lejos queda jean paul sartre muy lejos aquel parís
sin embargo a veces pienso que al final todo dio igual
las ostias siguen cayendo sobre quien habla de más

A           B                E             C#m 
y siguen los mismos muertos podridos de crueldad
ahora mueren en bosnia los que morían en vietnam
ahora mueren en bosnia los que morían en vietnam
ahora mueren en bosnia los que morían en vietnam


*-*-*-*-*-*-*-*-*-*-*-*-*-*-*-*-*-*-*-*-*-*-*-*-*-*-*-*-*-*-*-
-                                                            *
*      ________                                 *|       */   -
-          *|                                   *|     */     *
*          *|   _____             ________      *|   */       -
-          *| *|    *| *      */    *|         *| */         *
*          *| *|____*|  *    */     *|         *|   *       -
-          *| *|    *|   *  */      *|         *|     *     *
*      ____*| *|    *|    **/    ___*|___      *|       *   -
-                                                            *
*                                                            -
E|-*-*-*-*-*-*-*-*-*-*-*-*-*-*-*-*-*-*-*-*-*-*-*-*-*-*-*-*-*-*-*|
00:00 / 00:00
Otros videos de esta canción
Repetir
Otros videos de esta canción
Composición de Ismael Serrano
Colaboración y revisión:
  • Gustavo Boseti
  • Leandro Silva
2.245 vistas
    • ½ Tono
    • A
    • Bb
    • B
    • C
    • Db
    • D
    • Eb
    • E
    • F
    • F#
    • G
    • Ab
  • Agregar a la lista

    0 comentarios

    Ver todos los comentarios

    ¿Lograste tocar?

    0 Tocaron 0 Aún no

    ¡Graba un video tocando Papa, cuéntame otra vez y envíanoslo!

    00:00 / 00:00
    OK