Cifra Club

Vertigo

Ismael Serrano

Cifrado: Principal (guitarra y guitarra eléctrica)
tono: Em
Intro y base de la canción:

        C*                       D*                          E*
E|-3-----3---/--5-----5---/-7-----7---/-7--5---|
B|-----1---1-/------3---3-/-----8---8-/-8--3---|
G|---0-------/----2-------/---0-------/-0--2---|
D|-----------/--0---------/-----------/----0---|
A|-3---------/------------/-7---------/-7------|
E|-----------/------------/-----------/--------|

C*                       D*                          E*
E|-3-----3---/--5-----5---/-7-----7---/-7--5---|
B|-----1---1-/------3---3-/-----8---8-/-8--3---|
G|---0-------/----2-------/---0-------/-0--2---|
D|-----------/--0---------/-----------/----0---|
A|-3---------/------------/-7---------/-7------|
E|-----------/------------/-----------/--------|

    C*                         D*                       B7                      Em*
E|-3-----3---/-5-----5---/-2-----2---/-3-----3---|
B|-----1---1-/-----3---3-/-----0---0-/-----0---0-|
G|---0-------/---2-------/---2-------/---0-------|
D|-----------/-0---------/-----------/-2---------|
A|-3---------/-----------/-2---------/-----------|
E|-----------/-----------/-----------/-----------|

       Am7*                    D                        D4             D
E|-3------3---/-2-----2---3-----3---2-----2---|
B|------1---1-/-----3---3-----3---3-----3---2-|
G|----0-------/---2---------2---------2-------|
D|------------/-0---------0---------0---------|
A|-0----------/-------------------------------|
E|------------/-------------------------------|




                C*           D*             E*                  C/E           D*             E*
A.-  Recibiré postales del extranjero, tiernas y ajadas, besos, recuerdos
          C* D*     B7    Em*   Am7*                D     D4  D
       Cómo están todos, te echo de menos, cómo pasa el tiempo
      Seremos otros seremos más viejos, y cuando por fin me observe en tu espejo
      Espero al menos que me reconozca, me recuerde al que soy ahora

A.-  Aquellas manos, aquella mujer, aquel invierno no paraba de llover
        Perdona que llegue tan tarde, espero saber compensarte
        Estás tan bonita te invito a un café, la tarde es nuestra desnúdame
        Tras el relámpago te decía siempre, recogeré flores en tu vientre

      C                                       G    Am                      G
B.-   Otro hombre dormirá contigo, y dará nombre a todos tus hijos
       Am                    B7                    Em                         D                      Am   D
        Ven acércate a mí, deja que te vea, que otras primaveras, te han de llevar muy lejos de mí
        Vértigo que el mundo pare, que corto se me hace el viaje
       Me escucharás me buscarás cuando me pierda y no señale el norte la estrella polar


NOTA
          los acordes que utilizo en canción corresponden a esta descripción:

C*: -32013
D*: --0235
E*: -7-087
B7: -21202
Am7*: -02013
D|--0232|
D4:--0233
C:|-32010|
Am:-02210
00:00 / 00:00
Otros videos de esta canción
Repetir
Otros videos de esta canción
Composición de Ismael Serrano
123 vistas
    • ½ Tono
    • Am
    • Bbm
    • Bm
    • Cm
    • C#m
    • Dm
    • Ebm
    • Em
    • Fm
    • F#m
    • Gm
    • G#m
  • Agregar a la lista

    0 comentarios

    Ver todos los comentarios

    ¿Lograste tocar?

    0 Tocaron 0 Aún no

    ¡Graba un video tocando Vertigo y envíanoslo!

    00:00 / 00:00
    OK