Cifra Club

A Lua Que Eu Te Dei

Ivete Sangalo

Cifrado: Principal (guitarra y guitarra eléctrica)
tono: F# (con acordes en la forma de F) Capotraste en 1ª casa
       A9/E           A/G            F#m7       F7M(#11)

E|-------------|-----------0---|-------------|---------0---|
B|-0h2---------|-------2-3---3-|-2h3---------|-------0-----|
G|-2---2---2---|-----2---------|-----2---2---|-----2-------|
D|-2-----2---2-|---2-----------|-------2---2-|---2-------0-|
A|-------------|---------------|-------------|-------------|
E|-0-----------|-3-------------|-2-----------|-1-----------|

       A9/E           A/G            F#m7       F7M(#11)

E|-------------|-----------0---|-------------|---------0---|
B|-0h2---------|-------2-3---3-|-2h3---------|-------0-----|
G|-2---2---2---|-----2---------|-----2---2---|-----2-------|
D|-2-----2---2-|---2-----------|-------2---2-|---2-------0-|
A|-------------|---------------|-------------|-------------|
E|-0-----------|-3-------------|-2-----------|-1-----------|


A9                   A/G                F#m7
Posso te falar dos sonhos das flores de como a cidade
  D9  A9                  A/G            F#m7
Mudou posso te falar do medo  do meu desejo  do meu
 D9  A9      A9/C#   D9                  B9/D#
Amor posso falar  da tarde que cai e aos poucos deixa
A/E    C#7(#9)    F#m7       F7M       A9/E
Ver no céu    a lua   que um dia eu te dei


       A9/E           A/G            F#m7       F7M(#11)

E|-------------|-----------0---|-------------|---------0---|
B|-0h2---------|-------2-3---3-|-2h3---------|-------0-----|
G|-2---2---2---|-----2---------|-----2---2---|-----2-------|
D|-2-----2---2-|---2-----------|-------2---2-|---2-------0-|
A|-------------|---------------|-------------|-------------|
E|-0-----------|-3-------------|-2-----------|-1-----------|

       A9/E           A/G            F#m7       F7M(#11)

E|-------------|-----------0---|-------------|---------0---|
B|-0h2---------|-------2-3---3-|-2h3---------|-------0-----|
G|-2---2---2---|-----2---------|-----2---2---|-----2-------|
D|-2-----2---2-|---2-----------|-------2---2-|---2-------0-|
A|-------------|---------------|-------------|-------------|
E|-0-----------|-3-------------|-2-----------|-1-----------|


A9                  A/G              F#m7         D9
Gosto de fechar os olhos fugir do tempo  de me perder
A9                   A/G            F#m7          D9
Posso até perder a hora mas sei que já passou das seis
A9          A9/C#   D9         B9/D#      A/E
Sei que não há   no mundo quem possa te dizer que
C#7(#9)    F#m7  F7M(#11)          F#m7
Não    é tua   a lua     que eu te dei

       C#/F     A/E       D#m7(b5)
Pra brilhar por onde você for
          D9        Dm6         Dm6
Me queira bem durma bem meu amor


       A9/E           A/G            F#m7       F7M(#11)

E|-------------|-----------0---|-------------|---------0---|
B|-0h2---------|-------2-3---3-|-2h3---------|-------0-----|
G|-2---2---2---|-----2---------|-----2---2---|-----2-------|
D|-2-----2---2-|---2-----------|-------2---2-|---2-------0-|
A|-------------|---------------|-------------|-------------|
E|-0-----------|-3-------------|-2-----------|-1-----------|

       A9/E           A/G            F#m7       F7M(#11)

E|-------------|-----------0---|-------------|---------0---|
B|-0h2---------|-------2-3---3-|-2h3---------|-------0-----|
G|-2---2---2---|-----2---------|-----2---2---|-----2-------|
D|-2-----2---2-|---2-----------|-------2---2-|---2-------0-|
A|-------------|---------------|-------------|-------------|
E|-0-----------|-3-------------|-2-----------|-1-----------|


    (Solo de guitarra)
A9/E  A/G  F#m7  F7M(#11) 2x

   A9      A9/C#   D9                  B9/D#
Eu posso falar  da tarde que cai e aos poucos deixa
A/E    C#7(#9)    F#m7       F7M(#11)      F#m7
Ver no céu    a lua   que um dia     eu te dei


       C#/F     A/E       D#m7(b5)          D9
Pra brilhar por onde você for     me queira bem
      Dm6      F#m7  C#/F  A/E  D#m7(b5)
Durma bem meu amor
      D9            Dm6         Dm6
Durma bem me queira bem meu amor
Composición de Hebert Viana / Herbert Vianna
Colaboración y revisión:
2.509 vistas
    • ½ Tono
    • A
    • Bb
    • B
    • C
    • Db
    • D
    • Eb
    • E
    • F
    • F#
    • G
    • Ab
  • Agregar a la lista

    0 comentarios

    Ver todos los comentarios

    ¿Lograste tocar?

    11 Tocaron 5 Aún no

    ¡Graba un video tocando A Lua Que Eu Te Dei y envíanoslo!

    00:00 / 00:00
    Outros vídeos desta música
    Repetir Calidad Automático
    Outros vídeos desta música
    00:00 / 00:00
    Automático
    OK