Cifra Club

Aprenda

Baianidade Nagô

Ivete Sangalo

Tablatura: Principal (guitarra)
Tom: A
Intro:

   E7M(9)      B7(4/9)
Laiááá.. ê ô ê ô..
   E7M(9)      B7(4/9)
Laiááá.. ê ô ê ô..

Primeira Parte:

 E7M(9)
Já pintou verão
   C#m7
Calor no coração
   F#m7          B7(4/9)  B7(9)
A festa vai começar

      E7M(9)
Salvador se agita
      C#m7
Numa só alegria
  F#m7            B7(4/9)  B7(9)
Eternos Dodô e Osmar

 E7M(9)
Na avenida Sete
    C#m7
Da paz eu sou tiete
    F#m7                B7(4/9)  B7(9)
Na barra o Farol a brilhar

      E7M(9)
Carnaval na Bahia
   C#m7
Oitava maravilha
 F#m7             B7(4/9)  B7(9)
Nunca irei te deixar 
      E7M(9)  Bm7(11)  A#7(11+)
Meu amor

Refrão:

    A7M
Eu vou
   B/A                  G#m7
Atrás do trio elétrico vou
    C#7(9-)                  F#m7
Dançar ao negro toque do agogô
     B7(9-)                  E7M(9)
Curtindo minha baianidade nagô
    Bm7(11)  A#7(11+)
Ô ô ô    ô ô ô

     A7M
Eu queria
    B/A                   G#m7
Que essa fantasia fosse eterna
      C#7(9-)
Quem sabe um dia
                F#m7
A Paz vence a guerra
     B7(9-)           E7M(9)
E viver será só festejar
      B7(4/9)
Ê ô ê ô

(repete tudo)

Intro:

   E7M(9)               B7(4/9)
E|-------------------------x----------------|
B|-7---7---7---7----7---5--x--5-------------|
G|-8---8---8---8----8---6--x--6-------------|
D|-6---6---6---6----6---7--x--7-------------|
A|-------------------------x----------------|
E|-0-----7---0----7-----7--x--7-------------|

Primeira Parte - Estrofe:

Parte 1

   E7M(9)
E|------------------------------------------|
B|-7---7---7---7----7-----------------------|
G|-8---8---8---8----8-----------------------|
D|-6---6---6---6----6-----------------------|
A|------------------------------------------|
E|-0-----7---0----7-------------------------|

Parte 2

   C#m7
E|------------------------------------------|
B|-5---5---5---5----5-----------------------|
G|-4---4---4---4----4-----------------------|
D|-6---6---6---6----6-----------------------|
A|-4---------4------------------------------|
E|-------4--------4-------------------------|

Parte 3

   F#m7
E|------------------------------------------|
B|-2---2---2---2----2-----------------------|
G|-2---2---2---2----2-----------------------|
D|-2---2---2---2----2-----------------------|
A|-------4--------4-------------------------|
E|-2---------2------------------------------|

Parte 4

   B7(4/9)   B7(9)
E|------------------------------------------|
B|-5---5---5---4----4-----------------------|
G|-6---6---6---6----6-----------------------|
D|-7---7---7---7----7-----------------------|
A|------------------------------------------|
E|-7-----7---7----7-------------------------|

Preparação Refrão:

   E7M(9)              Bm7(11)  A#7(11+)
E|------------------------------------------|
B|-7---7---7---7----7----5--------5---------|
G|-8---8---8---8----8----7--------7---------|
D|-6---6---6---6----6----7--------6---------|
A|------------------------------------------|
E|-0-----7---0----7------7--------6---------|

Refrão - Estrofe:

   A7M
E|------------------------------------------|
B|-5---5---5---5----5-----------------------|
G|-6---6---6---6----6-----------------------|
D|-6---6---6---6----6-----------------------|
A|------------------------------------------|
E|-5-----0---5----0-------------------------|

   B/A
E|------------------------------------------|
B|-4---4---4---4----4-----------------------|
G|-4---4---4---4----4-----------------------|
D|-4---4---4---4----4-----------------------|
A|------------------------------------------|
E|-5-----5---5----5-------------------------|

   G#m7
E|------------------------------------------|
B|-4---4---4---4----4-----------------------|
G|-4---4---4---4----4-----------------------|
D|-4---4---4---4----4-----------------------|
A|-------6--------6-------------------------|
E|-4---------4------------------------------|

   C#7(9-)
E|------------------------------------------|
B|-3---3---3---3----3-----------------------|
G|-4---4---4---4----4-----------------------|
D|-3---3---3---3----3-----------------------|
A|-4---------4------------------------------|
E|-------4--------4-------------------------|

   F#m7
E|------------------------------------------|
B|-2---2---2---2----2-----------------------|
G|-2---2---2---2----2-----------------------|
D|-2---2---2---2----2-----------------------|
A|-------4--------4-------------------------|
E|-2---------2------------------------------|

  B7(9-)
E|------------------------------------------|
B|-1---1---1---1----1-----------------------|
G|-2---2---2---2----2-----------------------|
D|-1---1---1---1----1-----------------------|
A|-2---------2------------------------------|
E|-------2--------2-------------------------|

Preperação Refrão:

   E7M(9)              Bm7(11)  A#7(11+)
E|------------------------------------------|
B|-7---7---7---7----7----5--------5---------|
G|-8---8---8---8----8----7--------7---------|
D|-6---6---6---6----6----7--------6---------|
A|------------------------------------------|
E|-0-----7---0----7------7--------6---------|

Repete Refrão - Estrofe:

   A7M
E|------------------------------------------|
B|-5---5---5---5----5-----------------------|
G|-6---6---6---6----6-----------------------|
D|-6---6---6---6----6-----------------------|
A|------------------------------------------|
E|-5-----0---5----0-------------------------|

   B/A
E|------------------------------------------|
B|-4---4---4---4----4-----------------------|
G|-4---4---4---4----4-----------------------|
D|-4---4---4---4----4-----------------------|
A|------------------------------------------|
E|-5-----5---5----5-------------------------|

   G#m7
E|------------------------------------------|
B|-4---4---4---4----4-----------------------|
G|-4---4---4---4----4-----------------------|
D|-4---4---4---4----4-----------------------|
A|-------6--------6-------------------------|
E|-4---------4------------------------------|

   C#7(9-)
E|------------------------------------------|
B|-3---3---3---3----3-----------------------|
G|-4---4---4---4----4-----------------------|
D|-3---3---3---3----3-----------------------|
A|-4---------4------------------------------|
E|-------4--------4-------------------------|

   F#m7
E|------------------------------------------|
B|-2---2---2---2----2-----------------------|
G|-2---2---2---2----2-----------------------|
D|-2---2---2---2----2-----------------------|
A|-------4--------4-------------------------|
E|-2---------2------------------------------|

  B7(9-)
E|------------------------------------------|
B|-1---1---1---1----1-----------------------|
G|-2---2---2---2----2-----------------------|
D|-1---1---1---1----1-----------------------|
A|-2---------2------------------------------|
E|-------2--------2-------------------------|

Intro:

   E7M(9)               B7(4/9)
E|-------------------------x----------------|
B|-7---7---7---7----7---5--x--5-------------|
G|-8---8---8---8----8---6--x--6-------------|
D|-6---6---6---6----6---7--x--7-------------|
A|-------------------------x----------------|
E|-0-----7---0----7-----7--x--7-------------|
Compositor Evandro Rodrigues
Colaboración y revision:
  • Caroline Leroy
121 reproducciones
    • ½ Tom
    • A
    • Bb
    • B
    • C
    • Db
    • D
    • Eb
    • E
    • F
    • F#
    • G
    • Ab
  • Adicionar à lista

    0 comentarios

    Mostrar mais comentários

    ¿Conseguiste tocar?

    8 Tocaron 0 Ainda não

    Grave um vídeo tocando Baianidade Nagô e mande pra gente!

    00:00 / 00:00
    outros vídeos desta música
    repetir qualidade Automático
    Outros vídeos desta música
    00:00 / 00:00
    Automático
    Capítulos
    • Tocando a Música
    • Dicas Iniciais / Equipamentos
    • Acordes da Introdução
    • Tocando a Introdução
    • Ensinando a Introdução
    • Acordes da Primeira Parte
    • Tocando Primeira Parte
    • Ensinando a Primeira Parte
    • Primeira Parte - Parte 1 de 4
    • Primeira Parte - Parte 2 de 4
    • Primeira Parte - Parte 3 de 4
    • Primeira Parte - Parte 4 de 4
    • Ensinando a Preparação pro Refrão
    • Acordes do Refrão
    • Tocando o Refrão
    • Ensinando o Refrão
    • Encerramento
    • Ficha Técnica
    OK