Cifra Club

De Ladinho

Ivete Sangalo

Tab de bajo: Principal
Acompaña nuestras novedades de Cifra Club en español.
¡Sigue nuestro perfil en Instagram!
[Introdução]


Parte 01
G|--------------------------------------------|
D|--------------------------------------------|
A|---------------4-5-------------4--5-4-------|
E|-13\--5--4h5-------5-----5-5-7--------7-5---|
B|-------------7-------5-7--------------------|



[Primeira parte]

Não vou ficar sozinha...

Parte 1 
G|--------------------------------------------|
D|---------7-7-----------------------7-4------|
A|-------5-----9-x-7-5h7-----4-7-7-4-----5----|
E|-5-5-7-----------------5-5------------------|
B|--------------------------------------------|

G|--------------------------------------------|
D|-7-7---------------7------------------------|
A|-----9-x-7-5h7------------------------------|
E|---------------5-5--------------------------|
B|--------------------------------------------|



[Refrão]

Vou invadir o teu mundo...

Parte 1 de 3
G|--------------------------------------------|
D|-4---------4-----------7-4---------4--------|
A|---7-4-5-5---7-5-4---------7-4-5-5---7-5-4--|
E|-------------------5-5----------------------|
B|--------------------------------------------|

G|--------------------------------------------|
D|------7--4---------4-----------7-4---------4|
A|-----------7-4-5-5---7-5-4---------7-4-5-5--|
E|-5-5-----------------------5-5--------------|
B|--------------------------------------------|

G|--------------------------------------------|
D|--------------------------------------------|
A|-7-5-4--------------------------------------|
E|--------------------------------------------|
B|--------------------------------------------|

Parte 2 de 3 ( 2x )
G|---------------------------x----------------|
D|---------4--------6---6------x---6-7--------|
A|-----------7----4---4---5------5------------|
E|-5-----------5------------------------------|
B|---5-5-7------------------------------------|

G|--------------------------------------------|
D|---------4--------6---6---x-----------------|
A|-----------7----4---4---5---5-6h7-----------|
E|-5-----------5--------------------5---------|
B|---5-5-7------------------------------------|


Parte 3 de 3
G|--------------------------------------------|
D|--------------------------------------------|
A|--------------------------------------------|
E|--------------------------------------------|
B|-5-7----------------------------------------|



[Segunda parte]

Não vou ficar sozinha...

Parte 1
G|--------------------------------------------|
D|---------7-7-----------------------7-4------|
A|-------5-----9-x-7-5h7-----4-7-7-4-----5----|
E|-5-5-7-----------------5-5------------------|
B|--------------------------------------------|

G|--------------------------------------------|
D|-7-7---------------7------------------------|
A|-----9-x-7-5h7------------------------------|
E|---------------5-5--------------------------|
B|--------------------------------------------|



[Refrão 2]

Vou invadir o teu mundo...

Parte 1 de 3
G|--------------------------------------------|
D|-4---------4-----------7-4---------4--------|
A|---7-4-5-5---7-5-4---------7-4-5-5---7-5-4--|
E|-------------------5-5----------------------|
B|--------------------------------------------|

G|--------------------------------------------|
D|------7--4---------4-----------7-4---------4|
A|-----------7-4-5-5---7-5-4---------7-4-5-5--|
E|-5-5-----------------------5-5--------------|
B|--------------------------------------------|

G|--------------------------------------------|
D|--------------------------------------------|
A|-7-5-4--------------------------------------|
E|--------------------------------------------|
B|--------------------------------------------|

Parte 2 de 3 ( 2x )
G|---------------------------x----------------|
D|---------4--------6---6------x---6-7--------|
A|-----------7----4---4---5------5------------|
E|-5-----------5------------------------------|
B|---5-5-7------------------------------------|

G|--------------------------------------------|
D|---------4--------6---6---x-----------------|
A|-----------7----4---4---5---5-6h7-----------|
E|-5-----------5------------------------------|
B|---5-5-7------------------------------------|

Parte 3 de 3
G|---------------------------x----------------|
D|---------4--------6---6------x---6-7--------|
A|-----------7----4---4---5------5------------|
E|-5-----------5------------------------------|
B|---5-5-7------------------------------------|

G|--------------------------------------------|
D|---------4--------6---6---------------------|
A|-----------7----4---4---5-4-----------------|
E|-5-----------5--------------7-5--13\--------|
B|---5-5-7------------------------------------|



[Solo de Guitarra]

Parte 1 de 1
G|--------------------------------------------|
D|--------------------------------------------|
A|-----4-2-x-2-4-----4-2-x-2-4-----4-2-x-2----|
E|-2-5-----------2-5-----------2-5------------|
B|--------------------------------------------|

G|--------------------------------------------|
D|--------------------------------------------|
A|-7---7--------------------------------------|
E|---7---7\-5\--------------------------------|
B|--------------------------------------------|



[Terceira parte]

Não vou ficar sozinha...

Parte 1 de 1
G|--------------------------------------------|
D|---4----------------------------------------|
A|-5---7-5-4----------------------------------|
E|-----------7-5-4-5--------------------------|
B|-------------------5-7----------------------|

G|--------------------------------------------|
D|---------7-7-----------------------7-4------|
A|-------5-----9-x-7-5h7-----4-7-7-4-----5----|
E|-5-5-7-----------------5-5------------------|
B|--------------------------------------------|

G|--------------------------------------------|
D|-7-7---------------7------------------------|
A|-----9-x-7-5h7------------------------------|
E|---------------5-5--------------------------|
B|--------------------------------------------|



[Refrão 3]

Vou invadir o teu mundo...

Parte 1 de 4
G|--------------------------------------------|
D|-4---------4-----------7-4---------4--------|
A|---7-4-5-5---7-5-4---------7-4-5-5---7-5-4--|
E|-------------------5-5----------------------|
B|--------------------------------------------|

G|--------------------------------------------|
D|------7--4---------4-----------7-4---------4|
A|-----------7-4-5-5---7-5-4---------7-4-5-5--|
E|-5-5-----------------------5-5--------------|
B|--------------------------------------------|

G|--------------------------------------------|
D|--------------------------------------------|
A|-7-5-4--------------------------------------|
E|--------------------------------------------|
B|--------------------------------------------|

Parte 2 de 4 ( 2x )
G|---------------------------x----------------|
D|---------4--------6---6------x---6-7--------|
A|-----------7----4---4---5------5------------|
E|-5-----------5------------------------------|
B|---5-5-7------------------------------------|

G|--------------------------------------------|
D|---------4--------6---6---x-----------------|
A|-----------7----4---4---5---5-6h7-----------|
E|-5-----------5------------------------------|
B|---5-5-7------------------------------------|

Parte 3 de 4
G|-------------------------------------------|
D|---------4-4-------------7-7---------------|
A|-----4-7-----7-4-5-----------9-9-7-9-------|
E|-5-5---------------x-5-7-------------------|
B|-------------------------------------------|

G|--------------------------------------------|
D|-----------------------7-7------------------|
A|-----4-4-7-7-4-5-5---------9-7-9------------|
E|-5-5---------------7-5----------------------|
B|--------------------------------------------|

Parte 4 de 4
G|--------------------------------------------|
D|--------------------------------------------|
A|--------------------------------------------|
E|-5-3-1--5-5-5-------------------------------|
B|--------------------------------------------|
Composición de Boghan / Gustavo Di Dalva
Colaboración y revisión:
  • Reginaldo Costa
24 vistas

0 comentarios

Ver todos los comentarios

¿Lograste tocar?

0 Tocaron 0 Aún no

¡Graba un video tocando De Ladinho y envíanoslo!

00:00 / 00:00
Outros vídeos desta música
Repetir Calidad Automático
Outros vídeos desta música
00:00 / 00:00
Automático
OK