Cifra Club

Pererê

Ivete Sangalo

Cifrado: Principal (guitarra y guitarra eléctrica)
tono: Ab
(Sol Sustenido)


Solo:

E|-------11-11-12-13---13-13-11-11-------------||
B|--9-9----------------------------11-9--------||
G|---------------------------------------------||
D|---------------------------------------------||
A|---------------------------------------------||
E|---------------------------------------------||

E|--------8-11-11-11-11-9-8----------------13-13-13-13-11-9-8--||
B|--9-9-9-------------------11-11-11-11-14---------------------||
G|-------------------------------------------------------------||
D|-------------------------------------------------------------||
A|-------------------------------------------------------------||
E|-------------------------------------------------------------||

E|-------8-11-11-11-11-9-8----11-11-11-13-------------15-16----||
B|-9-9-9-------------------11-------------14-14-14-14----------||
G|-------------------------------------------------------------||
D|-------------------------------------------------------------||
A|-------------------------------------------------------------||
E|-------------------------------------------------------------||


REFRÃO

G#       D#          Fm
Pê Pê Rê Rê Pê Rê Pê Pê
         D#          G#
Pê Pê Rê Rê Pê Rê Pê Pê
G#       D#          Fm
Pê Pê Rê Rê Pê Rê Pê Pê
         D#          G#
Pê Pê Rê Rê Pê Rê Pê Pê

           D#                A#m
Perere saiu na capa do jornal
           Fm                  G#
fumando cachimbo em pleno carnaval
            D#                 A#m
Perere não gosta de sorvete quente
           D#                 G#
Perere só pula carnaval com agente

            D#                A#m
Perere não gosta de fumar cigarro
           Fm                 G#
Perere não bebe quando sai de carro
            D#                A#m
Perere não faz amor sem camisinha
          C# D#              G#
Perere não come nada sem farinha

             D#
Quando vira índio
         A#m
Ele fica nú
           Fm
Na salada dele
            G#
tem crú
            D#                  A#m
Perere é o mais querido do brasil
           D#                  G#
Perere só quer pular atras do trio

            D#                A#m
Perere não gosta de fumar cigarro
            Fm                G#
Perere não bebe quando sai de carro
            D#                A#m
Perere não faz amor sem camisinha
           D#              G#
Perere não come nada sem farinha
00:00 / 00:00
Otros videos de esta canción
Repetir
Otros videos de esta canción
Composición de Augusto Conceição / Chiclete / Chiclete Com Banana
Colaboración y revisión:
  • Vitor Meireles
  • João Pedro
303 exhibiciones
    • ½ Tono
    • A
    • Bb
    • B
    • C
    • Db
    • D
    • Eb
    • E
    • F
    • F#
    • G
    • Ab
  • Agregar a la lista
    00:00 / 00:00
    OK