Cifra Club

Penicilline

IZIA

Cifrado: Principal (guitarra y guitarra eléctrica)
Selo Cifra Club: esta cifra foi revisada para atender aos critérios oficiais da nossa Equipe de Qualidade.
tono: G#m
E|---------------------------------------------------------------------------|
B|---------------------------------------------------------------------------|
G|---------------------------------------------------------------------------|
D|---7-7-7---7---7-7---9---9-9-9---9-9-9---10---10---10-10---12-12---7-7-7---|
A|---7-7-7---7---7-7---7---7-7-7---7-7-7----7----7----7--7---10-10---5-5-5---|
E|---0-0-0---0---0-0---0---0-0-0---0-0-0----0----0----0--0----0--0---0-0-0---|

[Verse]

E|--------------------------------------------------------------------------|
B|--------------------------------------------------------------------------|
G|--------------------------------------------------------------------------|
D|---9-9-9----9--9--9--9---9-9-9----9-9-9-9---9---9-9---9---9---7---7---7---|
A|---9-9-9----9--9--7--7---7-7-7----7-7-7-7---7---7-7--10--10---7---7---7---|
E|---0-0-0----0--0--0--7---7-7-7----7-7-7-8---8---8-8---8---8--10--10--10---|

Bass :

(E string) 12-12-12-12-14-15-7-7-7-7-5-7-5-8-8-8-8-15-15-10-10-10- I (listen to it for the tempo)

[Bridge]

E|-----------------------------------------|-------------------------------------------|
B|-----------------------------------------|-------------------------------------------|
G|-----------------------------------------|-------------------------------------------|
D|---9-9-9----10-10-10----7-7-7----9-9-9---|---9-9-9----10-10-10----7-7-7----9-9-7-7---|
A|---7-7-7-----7--7--7----5-5-5----7-7-7---|---7-7-7-----7--7--7----5-5-5----7-7-5-5---|
E|-----------------------------------------|-------------------------------------------|

Ref 1 :

E|--------------------------------------------------------------------------|---------------------------|
B|--------------------------------------------------------------------------|---------------------------|
G|--------------------------------------------------------------------------|---------------------------|
D|---9---9---9-8-9-11---11---9---9-9-9-9---9---9-9---12---12---14---14-14---|---9---9---9-8-9-11---11---|
A|---7---7---7-6-7--9----9---7---7-7-7-7---7---7-7---10---10---12---12-12---|--7---7---7-6-7--9----9----|
E|---------------------------7---7-7-7-8---8---8-8--------------------------|---------------------------|


E|-----------------------------------------------------|-----------------------------------------------|
B|-----------------------------------------------------|-----------------------------------------------|
G|-------------17---17---17-17---11---11--16---16-16---|-----------------------------------------------|
D|--11---11-11-----------------------------------------|---9---9---9-8-9-11---11---9-9-9-9---9---9-9---|
A|---9----9--9-15---15---15-15----9----9--14---14-14---|---7---7---7-6-7--9----9---7-7-7-7---7---7-7---|
E|-----------------------------------------------------|---------------------------7-7-7-8---8---8-8---|


E|-------------------------|-----------------------------------------------------------------------------|
B|-------------------------|-----------------------------------------------------------------------------|
G|-------------------------|-------------------------------------17---17---17-17---11---11--16---16-16---|
D|---12---12---14---14-14--|-9---9---9-8-9--11---11--11---11-11------------------------------------------|
A|---10---10---12---12-12--|-7---7---7-6-7---9----9---9----9--9--15---15---15-15----9----9--14---14-14---|
E|-------------------------|-----------------------------------------------------------------------------|


Ref 2 :

E|--------------------------------------------------------------------------|--------------------------|
B|--------------------------------------------------------------------------|--------------------------|
G|--------------------------------------------------------------------------|--------------------------|
D|---9---9---9-8-9-11---11---9---9-9-9-9---9---9-9---12---12---14---14-14---|---9---9---9-8-9-11---11--|
A|---7---7---7-6-7--9----9---7---7-7-7-7---7---7-7---10---10---12---12-12---|---7---7---7-6-7--9----9--|
E|---------------------------7---7-7-7-8---8---8-8--------------------------|--------------------------|


E|-----------------------------------------------------|-------------------------------------------------|
B|-----------------------------------------------------|-------------------------------------------------|
G|-------------17---17---17-17---11---11--16---16-16---|---------------------------------17--17--17-17---|
D|--11---11-11-----------------------------------------|---9---9---9-8-9-11---11---9-9-9-----------------|
A|---9----9--9-15---15---15-15----9----9--14---14-14---|---7---7---7-6-7--9----9---7-7-7-15--15--15-15---|
E|-----------------------------------------------------|---------------------------7-7-7-----------------|


E|-------------------------|----------------------------------------------------------------------------|
B|-------------------------|----------------------------------------------------------------------------|
G|-------------------------|-------------------------------------17---17---17-17--16--16--11^13-13-11---|
D|---12---12---14---14-14--|-9---9---9-8-9--11---11--11---11-11-----------------------------------------|
A|---10---10---12---12-12--|-7---7---7-6-7---9----9---9----9--9--15---15---15-15--14--14---9^11--11-9---|
E|-------------------------|----------------------------------------------------------------------------|

INTER  (All that follows -< to bridge...):   2X Intro + 1X Verse +

 Part 1 :
E|----------------------------------------------------------------------------------------------------------|
B|----------------------------------------------------------------------------------------------------------|
G|------------------------------------------------------9-9---7---7---5---5---4---4---4---4---4-4---2---2---|
D|---9-9-9----9--9--9--9---9-9-9----9-9-9-9---9---9-9-----------------------------------------------0---0---|
A|---9-9-9----9--9--7--7---7-7-7----7-7-7-7---7---7-7---7-7---5---5---3---3---2---2---2---2---2-2---0---0---|
E|---0-0-0----0--0--0--7---7-7-7----7-7-7-8---8---8-8---8-8---7---7---5---5---4---4---4---3---3-3---2---2---|


E|-----------------------------------------------3---3---3---3---3---3-3---0---0---0---0---0---0-0---|
B|-----------------------------------------------0---0---0---0---0---0-0---0---0---0---0---0---0-0---|
G|---2---2---2---2-2---2---2---2---2---2---2-2---3---3---3---3---3---3-3---3---3---3---3---3---3-3---|
D|---0---0---0---0-0-----------------------------2---2---2---2---2---2-2---2---2---2---2---2---2-2---|
A|---0---0---0---0-0---3---3---3---3---3---3-3---3---3---3---3---3---3-3---3---3---3---3---3---3-3---|
E|---1---1---1---1-1---1---1---1---1---1---1-1-------------------------------------------------------|

Part 2 :

E|-------------------------------------------------------------------|-----------------------------------|
B|-------------------------------------------------------------------|-----------------------------------|
G|--11--11-11-11---9---9---9---9-9---11--11--11-11-9---9---9---9-9---|--11--11--11-11--9---9---9---9-9---|
D|-------------------------------------------------------------------|-----------------------------------|
A|---7---7---7-7---7---7---7---7-7---7---7---7-7---7---7---7---7-7---|-----------------------------------|
E|---0---0---0-0---0---0---0---0-0---0---0---0-0---0---0---0---0-0---|---8---8---8--8--8---8---8---8-8---|


E|------------------------------------|
B|------------------------------------|
G|--11--11--11-11---9---9---9---9-9---| Play this part 5X
D|------------------------------------|
A|------------------------------------|
E|---8---8---8--8---8---8---8---8-8---|

Part 3 :

E|-----------15^^^^---------15^^^^-------------17^^^^---|
B|---15^^^^^--------151^^^^--------15-15^^^^^^----------|
G|------------------------------------------------------|
D|------------------------------------------------------|
A|------------------------------------------------------|
E|------------------------------------------------------|
Otros videos de esta canción
    3 exhibiciones
      • ½ Tono
      • Am
      • Bbm
      • Bm
      • Cm
      • C#m
      • Dm
      • Ebm
      • Em
      • Fm
      • F#m
      • Gm
      • G#m
    • Agregar a la lista

    Afinação da cifra

    Afinador online

      Ops (: Contenido disponible solo en portugués.
      OK