Cifra Club

Hän

J. Karjalainen

Cifrado: Principal (guitarra y guitarra eléctrica)
Selo Cifra Club: esta cifra foi revisada para atender aos critérios oficiais da nossa Equipe de Qualidade.
tono: C
E|-------------------------------------|-------------------------------------|
B|-3/5----3/5--5---3/5--3--1--3--------|-3/5--5----5--3--1--3--3----5--------|
G|-3/5----3/5--5---3/5--4--2--4--2-----|-3/5--5----5--4--2--4--4----5--2-----|
D|-------------------------------------|-------------------------------------|
A|-------------------------------------|-------------------------------------|
E|-------------------------------------|-------------------------------------|

E|-------------------------------------|-------------------------------------|
B|-------------------------------------|-3/5----3/5--5---3/5--3--1--3--------|
G|-------5/7--5------------------------|-3/5----3/5--5---3/5--4--2--4--2-----|
D|-5-----5/7--5------------------------|-------------------------------------|
A|-------------------------------------|-------------------------------------|
E|-------------------------------------|-------------------------------------|

E|-----3--5-/8--5h8p5--------------------------------------------------------|
B|-/5-----------------8--5---------------------------------------------------|
G|--------------------------7---/9-------------------------------------------|
D|----------------------------------7----------5-----------------------------|
A|-------------------------------------------------------7----5----3---------|
E|---------------------------------------------------------------------------|


************************************

| /   Slide up
| h   Hammer-on
| p   Pull-off
Otros videos de esta canción
    6 exhibiciones
      • ½ Tono
      • A
      • Bb
      • B
      • C
      • Db
      • D
      • Eb
      • E
      • F
      • F#
      • G
      • Ab
    • Agregar a la lista

    Afinação da cifra

    Afinador online

      Ops (: Contenido disponible solo en portugués.
      OK