Cifra Club

Sinulle Sofia

J. Karjalainen

Cifrado: Principal (guitarra y guitarra eléctrica)
Selo Cifra Club: esta cifra foi revisada para atender aos critérios oficiais da nossa Equipe de Qualidade.
tono: D
E|-3-----2-0-----------------------|
B|---0-------3---0-----------------|
G|---------------------------------|
D|-----0-------0-------0-------0---| x2
A|-0-------0-------0-------0-------|
E|---------------------------------|

E|-------0---------------0-----------------------------------------|
B|-3---------3-----3---------3-------------------------------------|
G|---0-----------0---0-----------0---------------------------------|
D|-----4-------4-------4-------4-------0-------0-------0-------0---| x2
A|-5-------5-------5-------5-------0-------0-------0-------0-------|
E|-----------------------------------------------------------------|
     
E|-----------------------------------------------------------------|
B|-1-----1---------3-----3---------5-----7-5-3---0-----------------|
G|---0-------0---0---0---------------0-----------------------------|
D|-----2-------2-------4-------4-------0-------0-------0-------0---|
A|-2-------2-------4-------4-------5-------5-------0-------0-------|
E|-----------------------------------------------------------------|

E|-----------------------------------------------------------------|
B|-1-----1---------3-----3---------5-----7-5-3---0-----------------|
G|---0-------0---0---0---------------0---------0-----------2p0-----|
D|-----2-------2-------4-------4-------0---------------0-----------|
A|-2-------2-------4-------4-------5-------5-------0-------0-------|
E|-----------------------------------------------------------------|
 
E|---------------------------------3-----2-0-------------------|
B|-----1-------3-------5-------7-----0-------3---0-------------|
G|-----0-------0-------5-------7---------------------------2p0-|
D|-----2-------4-------5-------7-------0-------0-------0-------|
A|-2-------4-------5-------7-------------------------------0---|
E|---------------------------------0-------0-------0-----------|

E|---------------------------------3-----3---------3-----3---------|
B|-----1-------3-------5-------7-----0---------------0-------------|
G|-----0-------0-------5-------7-----------------------------------|
D|-----2-------4-------5-------7-------0-------0-------0-------0---|
A|-2-------4-------5-------7-------0-------0-------0-------0-------|
E|-----------------------------------------------------------------|



E|-3-----2-0-----------------------|
B|---0-------3---0-----------------|
G|---------------------------------|
D|-----0-------0-------0-------0---| x2
A|-0-------0-------0-------0-------|
E|---------------------------------|

E|-------0---------------0-----------------------------------------|
B|-3---------3-----3---------3-------------------------------------|
G|---0-----------0---0-----------0---------------------------------|
D|-----4-------4-------4-------4-------0-------0-------0-------0---| x2
A|-5-------5-------5-------5-------0-------0-------0-------0-------|
E|-----------------------------------------------------------------|
    
E|-3-----2-0-----------------------|
B|---0-------3---0-----------------|
G|---------------------------------|
D|-----0-------0-------0-------0---| x2
A|-0-------0-------0-------0-------|
E|---------------------------------|

E|-------0---------------0-----------------------------------------|
B|-3---------3-----3---------3-------------------------------------|
G|---0-----------0---0-----------0---------------------------------|
D|-----4-------4-------4-------4-------0-------0-------0-------0---| x2
A|-5-------5-------5-------5-------0-------0-------0-------0-------|
E|-----------------------------------------------------------------|
     
E|-----------------------------------------------------------------|
B|-1-----1---------3-----3---------5-----7-5-3---0-----------------|
G|---0-------0---0---0---------------0-----------------------------|
D|-----2-------2-------4-------4-------0-------0-------0-------0---|
A|-2-------2-------4-------4-------5-------5-------0-------0-------|
E|-----------------------------------------------------------------|

E|-----------------------------------------------------------------|
B|-1-----1---------3-----3---------5-----7-5-3---0-----------------|
G|---0-------0---0---0---------------0---------0-----------2p0-----|
D|-----2-------2-------4-------4-------0---------------0-----------|
A|-2-------2-------4-------4-------5-------5-------0-------0-------|
E|-----------------------------------------------------------------|
 
E|---------------------------------3-----2-0-------------------|
B|-----1-------3-------5-------7-----0-------3---0-------------|
G|-----0-------0-------5-------7---------------------------2p0-|
D|-----2-------4-------5-------7-------0-------0-------0-------|
A|-2-------4-------5-------7-------------------------------0---|
E|---------------------------------0-------0-------0-----------|

E|---------------------------------3-----3---------3-----3---------|
B|-----1-------3-------5-------7-----0---------------0-------------|
G|-----0-------0-------5-------7-----------------------------------|
D|-----2-------4-------5-------7-------0-------0-------0-------0---|
A|-2-------4-------5-------7-------0-------0-------0-------0-------|
E|-----------------------------------------------------------------|



E|-3-----2-0-----------------------|
B|---0-------3---0-----------------|
G|---------------------------------|
D|-----0-------0-------0-------0---| x2
A|-0-------0-------0-------0-------|
E|---------------------------------|

E|-------0---------------0-----------------------------------------|
B|-3---------3-----3---------3-------------------------------------|
G|---0-----------0---0-----------0---------------------------------|
D|-----4-------4-------4-------4-------0-------0-------0-------0---| x2
A|-5-------5-------5-------5-------0-------0-------0-------0-------|
E|-----------------------------------------------------------------|
     
E|-----------------------------------------------------------------|
B|-1-----1---------3-----3---------5-----7-5-3---0-----------------|
G|---0-------0---0---0---------------0-----------------------------|
D|-----2-------2-------4-------4-------0-------0-------0-------0---|
A|-2-------2-------4-------4-------5-------5-------0-------0-------|
E|-----------------------------------------------------------------|

E|-----------------------------------------------------------------|
B|-1-----1---------3-----3---------5-----7-5-3---0-----------------|
G|---0-------0---0---0---------------0---------0-----------2p0-----|
D|-----2-------2-------4-------4-------0---------------0-----------|
A|-2-------2-------4-------4-------5-------5-------0-------0-------|
E|-----------------------------------------------------------------|
 
E|---------------------------------3-----2-0-------------------|
B|-----1-------3-------5-------7-----0-------3---0-------------|
G|-----0-------0-------5-------7---------------------------2p0-|
D|-----2-------4-------5-------7-------0-------0-------0-------|
A|-2-------4-------5-------7-------------------------------0---|
E|---------------------------------0-------0-------0-----------|

E|---------------------------------3-----3---------3-----3---------|
B|-----1-------3-------5-------7-----0---------------0-------------|
G|-----0-------0-------5-------7-----------------------------------|
D|-----2-------4-------5-------7-------0-------0-------0-------0---|
A|-2-------4-------5-------7-------0-------0-------0-------0-------|
E|-----------------------------------------------------------------|
Otros videos de esta canción
    0 exhibiciones
      • ½ Tono
      • A
      • Bb
      • B
      • C
      • Db
      • D
      • Eb
      • E
      • F
      • F#
      • G
      • Ab
    • Agregar a la lista

    Afinação da cifra

    Afinador online

      Ops (: Contenido disponible solo en portugués.
      OK