Cifra Club

Constellations

Jack Johnson

Cifrado: Versão 3 (guitarra y guitarra eléctrica)
tono: Db (con acordes en la forma de C) Capotraste en 1ª casa
Tabbed by: Sam G        
Email: *

Tuning: Standard (Capo on 1)


 
This is a pretty hard song to catch on to. But after practicing for a while 
you'll get it. It's one of my favorite songs to play. 
During the tab, there are places where you let the note ring. I am going 
to put a ~ were you need to let it ring. ENJOY!

Order: Intro, Verse, Transition to Chorus, Chorus, Solo, Verse, 
Transition to Chorus, Chorus, Intro. 

        e|-3p2h3/5-3\2---1~---5p3-----------------------1p0--------|
        B|-------------2--1-------6---1-----3p1---3---------2------|
        G|------------------2-------5---0-------0---2---------1~---| Play X2
 Intro  D|--------------------------------2-----------4------------|
        A|----------------------------3-----------5----------------|
        E|-3~------------1~----------------------------------------|

        e|-3-3-5-3-3-2-3-3-3-3-3-3-3--3-3-3-3-3-3-3-3-3-3-3-3------|
        B|-3-3-3-3-3-3-3-3-3-3-3-3-3--5-5-5-3-3-3-3-3-3-3-3-3------|
        G|-4-4-4-4-4-4-4-4-4-4-4-4-4--5-5-5-5-5-5-5-5-5-5-5-5------| Play X2
 Verse  D|---------------5-5-5-5-5-5-------------------------------|
        A|---------------------------------------------------------|
        E|---------------------------------------------------------|

             e|--3-3-3-----0-0-0----|
             B|--5-5-5-X4--3-3-3-X4-|
 Transition  G|--5-5-5-----2-2-2----|
     to      D|---------------------|
   Chorus    A|---------------------|
             E|---------------------|

                  G   F   C   D
             e|---3---1-------2---|
             B|---3---1---1---3---|
             G|---0---2---0---2---| You can figure out the strumming
   Chorus    D|---0---3---2-------|
             A|---2---3---3-------|
             E|---3---------------|

Solo:

E|--3----5---3--7---5---3--0-----------3--------------3----5-----3----]
B|--------------------------3-----3-----33-----3----------------------]
G|----4/5-5\4----7\5-5\4-----5-0h2--2/4-----0h4-5/8----4/5---5\4------]
D|--------------------------------------------------------------------]
A|--------------------------------------------------------------------]
E|--------------------------------------------------------------------]

E|--7-5\3---3/5-3p0---3p0-----3p0--0-----2----------------------------]
B|--------5--------------3-3----------3----3--------------------------]
G|-----------------------/4---------0--------0------------------------]
D|-------------------------------------4------------------------------]
A|--------------------------------------------------------------------]
E|--------------------------------------------------------------------]

| /  slide up
| \  slide down
| h  hammer-on
| p  pull-off
Composición de Jack Johnson
Colaboración y revisión:
  • Diego Haim
26 vistas
    • ½ Tono
    • A
    • Bb
    • B
    • C
    • Db
    • D
    • Eb
    • E
    • F
    • F#
    • G
    • Ab
  • Agregar a la lista

    0 comentarios

    Ver todos los comentarios

    ¿Lograste tocar?

    0 Tocaron 0 Aún no

    ¡Graba un video tocando Constellations y envíanoslo!

    00:00 / 00:00
    Otros videos de esta canción
    Repetir Calidad Automático
    Otros videos de esta canción
    00:00 / 00:00
    Automático
    OK