Cifra Club

Constellations

Jack Johnson

Tab de bajo: Principal
RIFF
G-------------------|--------------------------|-------------------------------|
D--6---4------------|--6----6--------5--6--8---|--6-----6-----6-----5--8----5--|
A----------4---6----|-----6----6--4------------|-----8-----8-----6--------6----|
E-------------------|--------------------------|-------------------------------|

REFRAO
G-----------------------|
D--6----4---8-----6----8|
A-----6--------4----6---|
E-----------------------|

RIFF
G--------------------------|-------------------------------|
D--6----6--------5--6--8---|--6-----6-----6-----5--8----5--|
A-----6----6--4------------|-----8-----8-----6--------6----|
E--------------------------|-------------------------------|

REFRAO
G-----------------------|--------------------|
D--6----4---8-----6----8|--6--4--------------|
A-----6--------4----6---|---------4--6-------|
E-----------------------|--------------------|
Composición de Jack Johnson
Colaboración y revisión:
  • Eduardo Vieira
1 vistas

0 comentarios

Ver todos los comentarios

¿Lograste tocar?

0 Tocaron 0 Aún no

¡Graba un video tocando Constellations y envíanoslo!

00:00 / 00:00
Otros videos de esta canción
Repetir Calidad Automático
Otros videos de esta canción
00:00 / 00:00
Automático
OK