Cifra Club

Fragments

Jack Johnson

Cifrado: Principal (guitarra y guitarra eléctrica)
tono: Em
[Intro]

                      D                                          G
E|---------------------2-------2-------2-----------------------------------------------|
B|--3--2--0h2p0--------3-------3-------3-------3--2--0h2p0--------0-------0-------0----|
G|--------------2------2-----2-2-----2-2-------------------0----4-4-----4-4-----4-4----|
D|-----------------------0-------0-------0--------------------------5-------5-------5--|
A|-------------------------------------------------------------------------------------|
D|-----------------0-------0-------0--------------------------5-------5-------5--------|

                      D                                          G
E|---------------------2-------2-------2---------------------------------------|
B|--3--2--0h2p0--------3-------3-------3-------3--2--0h2p0--------0-------0----|
G|--------------2----2-2-----2-2-----2-2-------------------0----4-4-----4-4----|
D|-----------------------0-------0-------0--------------------------5-------5--|
A|-----------------------------------------------------------------------------|
D|-----------------0-------0-------0--------------------------5-------5--------|

         A                    G                     A
E|--------0------------------------------------------|
B|-----------------------------0---------------------|
G|--------6-----6------------4-4-----4-4--------/6---|
D|------7---7---7-7--------------5-----5--------/7---|
A|-----------------------------------------------x---|
D|---/7-------7-----7------5-------5------------/7---|

                 D                   G
Fragments on the sea, birds of prey above
                    D                    G
All that lies beneath, no longer what is was
   A        G              A
It changed, why can't we relate?

                 D                               G
Shadows from the deep, the thoughts we're afraid of
                D                        G
Secrets that we keep, the surface of our love
    A     G              A
And hate, why can't we relate
G                   A            G                A
With ourselves with what we open up when it's too late?

                      D                G/B     C9
E|---------------------2-------2---------------------|
B|--3--2---------------3-------3--------3-------3----|
G|--------2-/4---------2-----2-2--------0-------0----|
D|-----------------------0-------0----0---0---1---1--| (x4)
A|----------------------------------2-------3--------|
E|-----------------0-------0-------------------------|

E|----------------------------------------------------------------------------------------------------|
B|--10b12-10-7-----------------7---7----10h12-10-----10b12-10-----------------------------------------|
G|-------------9-7-------------7h9-7----11----11--------------11-9b11-11-9--------------7---------11--|
D|-----------------9-7-----7/9-------10------------------------------------12-9-----7/9---10--/12-----|
A|----------------------------------------------------------------------------------------------------|
E|----------------------------------------------------------------------------------------------------|

E|--------------------------------------------------------------------10------------------------------|
B|--10b12-10-7-----------------7---7----10h12-10-----10p7-10--10/12-----------12-10\7-----------------|
G|-------------9-7-------------7h9-7----11----11---------------------------------------11-9-7-9-9b11--|
D|-----------------9-7-----7/9-------10---------------------------------------------------------------|
A|----------------------------------------------------------------------------------------------------|
E|----------------------------------------------------------------------------------------------------|

               D                  G
What we used to be, what we will become
                D                    G
Worlds we cannot see, breaking up by one
   A    G              A
By one, slowly we fell under a spell
G      A    G              A
One by one, slowly we wake up

               D                             G
Fragments of a scene, from a distant stage undone
              D                  G
Little time machine, messages of love
    A     G               A
And hate, why can't we collate
G                   A            G                A
With ourselves with what we open up when it's too late?

                      D                G/B     C9
E|---------------------2-------2---------------------|
B|--3--2---------------3-------3--------3-------3----|
G|--------2-/4---------2-----2-2--------0-------0----|
D|-----------------------0-------0----0---0---1---1--| (x6)
A|----------------------------------2-------3--------|
E|-----------------0-------0-------------------------|

E|-----------------------------------------------------------------------------------------------------|
B|--10b12-10-7-----------------7---7----10h12-10h12-----10b12-10-7-----------------7---7-----10---10---|
G|-------------9-7-------------7h9-7----11----11-------------------9-7-------------7h9-7------9h11-9---|
D|-----------------9-7-----7/9-------10--------------------------------9-7-----7/9-------10------------|
A|-----------------------------------------------------------------------------------------------------|
E|-----------------------------------------------------------------------------------------------------|

E|-----------------------------------------------------------------------------------------------------|
B|--10b12-10-------------------------------------------10b12-10--------------------------7---7---------|
G|-----------11-9b11-11-9--------------7---------11-------------11-9b11-11-9-------------7h9-7----7----|
D|------------------------12-9-----7/9---10--/12-----------------------------12-9----7/9-------10---10-|
A|-----------------------------------------------------------------------------------------------------|
E|-----------------------------------------------------------------------------------------------------|

E|-------7-7-------7------7---------------------7-7----------7-7------7--------------------------------|
B|-------7---------7------7---------------------7------------7--------7----10b12-10-7------------------|
G|--9b11-----9b11----9b11-------10b12-10-7-9b11---------9b11-----9b11-----------------9b11-11r9\7------|
D|------------------------------------------------------------------------------------------------9/12-|
A|-----------------------------------------------------------------------------------------------------|
E|-----------------------------------------------------------------------------------------------------|
Compositor não encontrado.
Colaboración y revisión:
  • Christian Alex
285 vistas
    • ½ Tono
    • Am
    • Bbm
    • Bm
    • Cm
    • C#m
    • Dm
    • Ebm
    • Em
    • Fm
    • F#m
    • Gm
    • G#m
  • Agregar a la lista

    0 comentarios

    Ver todos los comentarios

    ¿Lograste tocar?

    0 Tocaron 0 Aún no

    ¡Graba un video tocando Fragments y envíanoslo!

    00:00 / 00:00
    Outros vídeos desta música
    Repetir Calidad Automático
    Outros vídeos desta música
    00:00 / 00:00
    Automático
    OK