Cifra Club

I Got You

Jack Johnson

Tablatura: Principal (guitarra)
reproducciones 6.630
Tono: B
[Intro]
                                                                              
E|---8--x--5--0--3--|---8--x--5--0--3--1--0--|---8--x--5--0--3--|---3--0-----|
B|------x-----------|------x-----------------|------x-----------|---------2--|
G|------x-----------|------x-----------------|------x-----------|------------|
D|------x-----------|------x-----------------|------x-----------|------------|
A|------x-----------|------x-----------------|------x-----------|------------|
E|---5--x--5--0--0--|---5--x--5--0--0--0--0--|---5--x--5--0--0--|------------|

[Riff]

E|---------------------------------|
B|--2/4---4------------------------|
G|---------------------------------|
D|--2/4------4/2-------------------|
A|---------------------------------|
E|---------------------------------|

 E                                    B
Back when all my little goals seemed so important
E                                     B
Every pot of gold filling full of distortion
 E                                  B              F#  (Riff 1)
Heaven was a place, still in space not in motion, but soon

   E                    B
I got you, i got everything
      E                B                  E
I've got you, i don't need nothing,more than you

   B                 F#  (Riff 1)
I got everything, i got you
 E                                              B
We went walking through the hills trying to pretend that we both know
 E                             B
Maybe if we save up, we could build a little home
      E                                        B
But then the hail storm came and yelled, "you need to let it go
               F#          (Riff 1)
You've got no control", no

E                B
I got you, i got everything
E                B                        E
I've got you, i don't need nothing more than, you
      B              F#  (Riff 1)
I got everything, i got you

      G#m                 B
This weight is too much alone
      G#m          B
Some days i can't hold it at all
        G#m             B
If you take it all for me

      C#m                       E                   B
When tomorrow's too much, i'll carry it all, i got you
           C#m                       E                   B
Yeah when tomorrow's too much, i'll carry it all, i got you

E                B
I got you, i got everything
E                B                        E
I've got you, i don't need nothing more than, you
      B              F#    (Riff 1)
I got everything, i got you
Acordes para:

    0 comentarios

      mostrar más comentarios

      ¿Conseguiste tocar?

      22tocaron0aún no

      ¡Graba un vídeo tocando I Got You y envianoslo!

      00:00 / 00:00
      outros vídeos desta música
      repetirqualidadeAutomático
      Outro vídeos desta música
        00:00 / 00:00
        OK