Cifra Club

I Got You

Jack Johnson

Acordes: Principal
reproducciones 6.162
Tono: B
Afinação: B F# B F# B D#

Intro:
                                                                              (Riff 1)

|---8--x--5--0--3--|---8--x--5--0--3--1--0--|---8--x--5--0--3--|---3--0-----|----------------
|------x-----------|------x-----------------|------x-----------|---------2--|--2/4---4-------
|------x-----------|------x-----------------|------x-----------|------------|----------------
|------x-----------|------x-----------------|------x-----------|------------|--2/4------4/2--
|------x-----------|------x-----------------|------x-----------|------------|----------------
|---5--x--5--0--0--|---5--x--5--0--0--0--0--|---5--x--5--0--0--|------------|----------------


Acordes:


         E      B       F#     G#m    C#m
|-----5------0-------0-------0------0
|-----0------0-------2-------2------0
|-----0------0-------0-------0------0
|-----0------4-------2-------0------0
|-----0------5-------0-------2------0
|-----5------0-------x-------x------2


E                                    B
Back when all my little goals seemed so important,
E                                    B
Every pot of gold filling full of distortion,
E                                    B               F#  (Riff 1)
Heaven was a place, still in space not in motion, but soon...

Refrão:

     E                    B
I got you, i got everything,
     E                    B                E
I've got you, i don't need nothing,more than you

    B                  F#  (Riff 1)
I got everything, i got you.
E                                              B
We went walking through the hills trying to pretend that we both know,
E                             B
Maybe if we save up, we could build a little home,
    E                                         B
But then the hail storm came and yelled, "you need to let it go,
              F#          (Riff 1)
You've got no control", no

E                 B
I got you, i got everything,
E                  B                      E
I've got you, i don't need nothing more than, you
       B               F#   (Riff 1)
I got everything, i got you.

      G#m                 B
This weight is too much alone,
     G#m           B
Some days i can't hold it at all
       G#m               B
If you take it all for me

       C#m                      E                   B
When tomorrow's too much, i'll carry it all, i got you
            C#m                      E                   B
Yeah when tomorrow's too much, i'll carry it all, i got you

E                 B
I got you, i got everything,
E                  B                      E
I've got you, i don't need nothing more than, you
       B               F#    (Riff 1)
I got everything, i got you.
Acordes para:

    0 comentarios

      mostrar mas comentarios

      ¿Conseguiste tocar?

      21tocaron0aún no

      ¡Grave un vídeo tocando I Got You y envie para nosotros!

      00:00 / 00:00
      outros vídeos desta música
      repetirqualidadeautomática
      Outro vídeos desta música
        00:00 / 00:00
        automática
        OK