Cifra Club

Bruises Are Back In Style

Jack Off Jill

Cifrado: Principal (guitarra y guitarra eléctrica)
tono: C

Tabbed by Ottis (GoblinK*)

e------------------------------
B------------------------------
G------------------------------
D----------8-7-----------8-7---
A----------8-7-----------8-7---
E--0--0-0--6-5---0--0-0--6-5---
   Verse

e------------------
B------------------
G------------------
D--9---8---7---5---
A--9---8---7---5---
E--7---6---5---3---
   Chorus

e---------------------
B---------------------
G--9-9------9-9--10---
D--9-9--8---9-9--10---
A--7-7--8---7-7--8----
E-------6-------------
   Post-Chorus

================================================================================
00:00 / 00:00
Otros videos de esta canción
Repetir
Otros videos de esta canción
Composición de Jack Off Jill
21 exhibiciones
    • ½ Tono
    • A
    • Bb
    • B
    • C
    • Db
    • D
    • Eb
    • E
    • F
    • F#
    • G
    • Ab
  • Agregar a la lista
    00:00 / 00:00
    OK