Cifra Club

Cherry Scented

Jack Off Jill

Cifrado: Principal (guitarra y guitarra eléctrica)
tono: F

Tabbed by Ottis (GoblinK*)

e--------------
B--------------
G--------------
D--5----7--8---
A--5----7--8---
E--3----5--6---
   Verse

e------------------------------
B------------------------------
G-----------------------6--5---
D--x-x-5--x-x-5--x-x-5--6--5---
A--x-x-5--x-x-5--x-x-5--4--3---
E--x-x-3--x-x-3--x-x-3---------
   Chorus/Ending

================================================================================
00:00 / 00:00
Otros videos de esta canción
Repetir
Otros videos de esta canción
Composición de Jack Off Jill
19 exhibiciones
    • ½ Tono
    • A
    • Bb
    • B
    • C
    • Db
    • D
    • Eb
    • E
    • F
    • F#
    • G
    • Ab
  • Agregar a la lista
    00:00 / 00:00
    OK