Cifra Club

Chocolate Chicken

Jack Off Jill

Chords: Principal (acoustic and electric guitars)
tone: B

Tabbed by Ottis (GoblinK*)

e-------------------------------------------
B--6-6--5-5--------------6-6--5-5-----------
G------------5-5--4--4-------------5-5-5-5--
D-------------------------------------------
A-------------------------------------------
E-------------------------------------------

e--8-8--7-7--6-6--5-5---8-8--7-7--6-6-6-6---
B-------------------------------------------
G-------------------------------------------
D-------------------------------------------
A-------------------------------------------
E-------------------------------------------
   Verse

e--7--7--9----
B--9--7--9----
G--9--8--10---
D--9--9--11---
A--7--9--11---
E-----7--9----
   Chorus

e--9-----7--
B--9-----7--
G--10----8--
D--11----9--
A--11----9--
E--9-----7--
   Bridge

================================================================================
00:00 / 00:00
Other videos of this song
Repeat
Other videos of this song
Composed by Jack Off Jill
19 views
    • ½ Tone
    • A
    • Bb
    • B
    • C
    • Db
    • D
    • Eb
    • E
    • F
    • F#
    • G
    • Ab
  • Add to list
    00:00 / 00:00
    OK