Cifra Club

Buttercup

Jack Stauber

Cifrado: Versão 3 (guitarra y guitarra eléctrica)
tono: Bm
[Intro]

   Bm                           Em
E|--7---------------------------7-------------|
B|--7---------------------------8-------------|
G|--7---------------------------9-------------|
D|--9---------------------------9-------------|
A|--9---------------------------7-------------|
E|--7-----------------------------------------|

   Em       Bm               Em
E|--7------7-----------------7\---------------|
B|--8------7-----------------8\---------------|
G|--9------7-----7----7----7/9\--------------|
D|--9------9----------------------------------|
A|--7------9----------------------------------|
E|---------7----------------------------------|

[Primeira Parte]

Bm                           Bm  Em
Forget it, I'll do it sometime
                           Bm
I'm locked up on the button
                        Bm  Em
Can't you do it sometime
                    Bm
Pushed it in too far
                    Bm  Em
Fine, electrify mine
                         Bm
Electrify my golden tooth
                       Bm  Em
Can't look at your eyes
                          
Without sparking some

     Bm    Em
E|---7-----7\---------------------------------|
B|---8-----7\---------------------------------|
G|---9-----7\---------------------------------|
D|--------------------------------------------|
A|--------------------------------------------|
E|--------------------------------------------|

[Refrão]

                 Bm    Em
Electrify my heart 
                 Bm    Em
Electrify my heart 

[Refrão]

    Em                  Bm
E|------7--7-----7--7-------7--7-----7--7--|
B|------8--8-----8--8-------7--7-----7--7--|
G|------9--9-----9--9-------7--7-----7--7--|
D|---9--------9----------------------------|
A|---7--------7----------9--------9--------|
E|-----------------------7--------7--------|

[Solo]

[Guitarra 1]

(Parte 1)

E|-----------14--12--12-----------------------|
B|-----15p12-------------15--14---14---15\12--|
G|--12----------------------------------------|
D|--------------------------------------------|
A|--------------------------------------------|
E|--------------------------------------------|


(Parte 2)

E|---12---------------------------------------|
B|------15--14--------------------------------|
G|-------------14--14-------------------------|
D|--------------------------------------------|
A|--------------------------------------------|
E|--------------------------------------------|


(Parte 3)

E|------15-----12-----------------------------|
B|--15------------15--14--14~-----------------|
G|--------------------------------------------|
D|--------------------------------------------|
A|--------------------------------------------|
E|--------------------------------------------|

[Guitarra 2] (Entra na parte 3)


E|--------------------------------------------|
B|---8h10--8-8--10---8-8--10--12--12--15\7----|
G|--------------------------------------------|
D|--------------------------------------------|
A|--------------------------------------------|
E|--------------------------------------------|

[Segunda Parte]

 Bm                          Bm  Em
Surprise, I'm in the same time
                     Bm
Beneath the same sun
                           Bm  Em
Oh, man, you cut me to size
                   Bm
My little buttercup



[Terceira Parte]
                     
Fine, electrify mine
                
Electrify my golden tooth

Can't look at those eyes

Without sparking some

E|--------------------------------------------|
B|--------------------------------------------|
G|--------------------------------------------|
D|---9----7------------7----------------------|
A|--------------9-----------------------------|
E|--------------7-----------------------------|

[Refrão]

                Em     Bm
Electrify my heart
                Em     Bm
Electrify my heart
                Em     Bm
Electrify my heart
                Em     Bm
Electrify my heart

[Riff]

E|--10--10--10--10---12---12/14---12---10-----|
B|--------------------------------------------|
G|--------------------------------------------|
D|--------------------------------------------|
A|--------------------------------------------|
E|--------------------------------------------|

E|------------12------------------------------|
B|--12---10-------12---10---------------------|
G|------------------------12p11---------------|
D|--------------------------------------------|
A|--------------------------------------------|
E|--------------------------------------------|
00:00 / 00:00
Otros videos de esta canción
Repetir
Otros videos de esta canción
Composición de Jack Stauber
Colaboración y revisión:
  • Thiago Santos
  • adriana buono
850 vistas
  • Simplificar cifrado
    • ½ Tono
    • Am
    • Bbm
    • Bm
    • Cm
    • C#m
    • Dm
    • Ebm
    • Em
    • Fm
    • F#m
    • Gm
    • G#m
  • Agregar a la lista

    0 comentarios

    Ver todos los comentarios

    ¿Lograste tocar?

    3 Tocaron 1 Aún no

    ¡Graba un video tocando Buttercup y envíanoslo!

    00:00 / 00:00
    OK