Cifra Club

Aprenda

Watch Me

Jaden

Tablatura: Principal (guitarra)
tono: F
D|-------------------------------------------------------------|
A|-------------------------------------------------------------|
F|----------------------------------------------------2--------|
C|------------------3---------------------3-----3--5-----5--3--|
G|--5--5p3--0--3h5-----5-----5p3--0--3h5-----5-----------------|
D|-------------------------------------------------------------|

D|-------------------------------------------------------------|
A|-------------------------------------------------------------|
F|-------------------------------------------------------------|
C|---------------------3------------------3--------------------|
G|-----5--5p3--0--3h5-----5--5p3--0--3h5-----5--3--5--7--5--3--|
D|-------------------------------------------5--3--5--7--5--3--|

Dm
Watch me, watch me
F
Watch me, do this
Dm
Watch me, watch me
F
Watch me, do this

G
Can't find me up up and away
I give a fuck bout your wave
N.C.
My nigga I surf everyday
                        Ab
Drownin' my soul in the basement, aye
G
I ain't got much in the bank
I got a lot I could say
D
Got a blue goddess to say
I hope you forgive my mistakes
Dm
Yeah, ride around with a renegade
You should take a seat, save your energy
Dm
I try to heal the gods with a band-aid
And the time I need you call your enemies
Dm
I landed in Ibiza and I need a visa
I ain't playin' with you this no Mamma Mia
Dm
Need a Hottie Tottie with a body, yeah
I just spit the knowledge then I'm out of here

Dm
(Yeah!) Thats what they are when we come around
Dm
(Yeah!) this is your town and we run it now
Dm
(Yeah!) How big is your army, a hunnit thou?
Dm
(Yeah!) if you want the rain then we comin' down

Dm
I stamp that we cool
I'm awesome, kickflip in the Carsons
Dm
We should run for the pool
I got the fire flow, the department exhausted
Dm
I owe nothing to you
            Bb
I'm in the Tahoe, man you making me nauseous
Dm
Pullin up with the crew
You such a hypebeast, man you making me vomit
Look

Dm
Watch me, watch me
Dm
Watch me, do this
Dm
Its always been more than the music
F
You riding waves in the back of my cruise ship
Dm
Look, Watch me, watch me
Dm
Watch me, do this
Dm
Since 2012 I've been the coolest
F
If you do not get it my nigga you foolish

Dm
(Yeah!) Thats what they are when we come around
Dm
(Yeah!) this is your town and we run it now
Dm
(Yeah!) How big is your army, a hunnit thou?
Dm                                      C
(Yeah!) if you want the rain then we comin' down

Dm
Look, look, look
Dm
This shit is out of here
Dm
You got the heat I was not aware
Dm
Me and Bebe out in Rotterdam
Dm
Got a new man, damn now I see him
He on the floor, in my coliseum
Dm
I hope to god he don't sign a prenup
See my ex on the street like I never seen her!

Dm
Watch me, watch me
Dm
Watch me, do this
Dm
You see me dancing like I'm Elvis
Dm
Just tell your man that it's all in the pelvis
Dm
Watch me, watch me
Dm
Watch me, do this
Dm
Since 2012 I've been the coolest
F
If you do not get it my nigga you foolish

Dm
(Yeah!) Thats what they are when we come around
Dm
(Yeah!) this is your town and we run it now
Dm
(Yeah!) How big is your army, a hunnit thou?
Dm
(Yeah!) if you want the rain then we comin' down
Composição de Jaden Smith
Colaboración y revision:
  • Elizandro chamale
3 reproducciones
    • ½ Tono
    • A
    • Bb
    • B
    • C
    • Db
    • D
    • Eb
    • E
    • F
    • F#
    • G
    • Ab
  • Adicionar à lista

    0 comentarios

    Ver todos os comentários

    ¿Conseguiste tocar?

    0 Tocaram 0 Ainda não

    Grave um vídeo tocando Watch Me e nos envie!

    00:00 / 00:00
    outros vídeos desta música
    repetir qualidade Automático
    Outros vídeos desta música
    00:00 / 00:00
    Automático
    OK