Enviar cifraEntrar

Minuto de fragilidade

Jads e Jadson

Acordes: Principal
reproducciones 26
Tono: G
(intro)


E|--------------------------------------------------------------------
B|--------------------------------------------------------------------
G|--------------------------------------------------------------------
D|--------------------------------------------------------------------
A|--2-2-2-2-3-5-5----3-2-0----0-5-3-2-0----0-3-2-0-3-2----------------
E|--------------------------------------------------------------------


E|-----------------------------------------------------------------3--
B|-----------------------------------------------------------------3--
G|-----------------------------------------------------------------0--
D|-----------------------------------------------------------------0--
A|--2-2-2-2-3-5-5----2-3-5-3-2-3---2----3h2------------------------2--
E|------------------------------------------3----------------------3--


G                        D
Perdoa pelo meu impulso de felicidade
G                        D
foi apenas um minuto de fragilidade
Bm                      Em             Am
eu acho que sonhei de mais alem do que você quis
G                        D
perdoa se eu te convidei pra ser feliz,feliz
G                      D
perdoa se eu me esqueci que era uma aventura
G                    D
e de repente confundi prazer com ternura
Bm               Em
eu fui abrir meu coração
           Am
e nem dei conta de sofrer
G               D         Am  C
perdoa se eu me apaixonei por você

(refrão)
G               D
e que eu cansei de brincar de amor
                  G
e fui me envolver gostar de verdade
G               D                  C    D
se você não entendeu pelo menos me fez sentir
C
saudade

( G D Am C G D )

G                      D
Perdoa se eu me esqueci que era uma aventura...
  • 1
  • 2
  • 3
  • 4
  • 5
  • 6
  • 7
  • 8
  • 9
  • 10
  • 11
  • 12
    Acordes para:
      Colaboración y revision:

      0 comentarios

        mostrar mas comentarios

        ¿Conseguiste tocar?

        2tocaron0aún no

        ¡Grave un vídeo tocando Minuto de fragilidade y envie para nosotros!

        00:00 / 00:00
        outros vídeos desta música
        repetirqualidadeautomática
        • automática
        Outro vídeos desta música
          00:00 / 00:00
          automática
          • automática
          Acordes para:guitarra
          dificuldadreproduccionescontribuciones
          cerrarplay/pause subir/bajar velocidad
            acordes
            cerrar
            OK
            Feedback