Cifra Club

Antes De Que Nos Olviden

Jaguares

Cifrado: Principal (guitarra y guitarra eléctrica)
tono: Bm
  introducción

para hacer la introduccionse acompaña con  quintas en A [La]
y el rasgueo es arriba  abajo

este es un pequeño bajeo que se escucha al principio de la cancion
E|----------------------------------------------------------------|
B|----------------------------------------------------------------|
G|----------------------------------------------------------------|
D|----7-7-7-7-6-4---7-7-7-7-9-10----------------------------------|
A|----------------------------------------------------------------|
E|----------------------------------------------------------------|

este es el resgueo (pero deben escuchar la rola para saber cuantos
rasgueos son)
E|-----0--------0----0-------0---x----x---x--x--x-|
B|-----3--------2----3-------2---5----3---2--3--2-|
G|-----2--------2----2-------2---2----2---2--2--2-|
D|-----2--------2----2-------2---2----2---2--2--2-|
A|------------------------------------------------|
E|------------------------------------------------|

EL RITMO DE A  ROA  G  O ES PUNTEO

A                   A6
antes de que nos olviden
A7          D
haremos historia,
Dm                 A
no andaremos de rodillas;
F#m
el alma no tiene la culpa

A                   A6
antes de que nos olviden
A7            D
rasgaremos paredes
Dm             A
y buscaremos restos;
F#m
no importa si fue nuestra vida

A       E
hoooooooooooooo
Bm      G
hooooooooooooooo
Em
hoooooo


AQUI ENTRA MAS RAPIDA A  CANCION

A
antes de que nos olviden
A7               D
nos evaporaremos en magueyes
Dm              A
y subiremos hasta el cielo
F#m
y bajaresmos con la  lluvia

A
antes de que nos olviden
A7          D
romperemos jaulas
D             D
y gritaremos la fuga;
F#m
no hay que condenar el alma

A       E
hoooooooooooo
Bm    G
hooooooooo
Em
hooooo

A      E
hoooooooooooo
Bm     G
hooooooooo
Em
hooooo


 Y AQUI VA EL BAJEO
E|----------------------------------------------------------------|
B|----------------------------------------------------------------|
G|----------------------------------------------------------------|
D|-----7---9-7/9-6------------------------------------------------|
A|-7/9--------------7-9-10-10--10/13-12-10-9----------------------|
E|----------------------------------------------------------------|

E|----------------------------------------------------------------|
B|----------------------------------------------------------------|
G|----------------------------------------------------------------|
D|------------7-9-7-9/11-11-11-9/7-9-7----------------------------|
A|-5-7-8-8---8----------------------------------------------------|
E|----------------------------------------------------------------|

E|----------------------------------------------------------------|
B|----------------------------------------------------------------|
G|----------------------------------------------------------------|
D|-------7--10-9-7---7--------------------------------------------|
A|---7/9-----------9----9-9-7/9/7---------------------------------|
E|--------------------------------9/5-----------------------------|

 SE D PITE EL PUNTEO PARA A  ULTIMA PARTE

        A      A6
AUNQUE TU ME OLVIDES
A7                D
TE PONDD  EN UN ALTAR DE VEAD ORAS
Dm                       A
Y EN CADA UNA PONDD  TU NOMBD 
F#m
Y CUIDAD  DE TU ALMA

AMEN............

CON  ESTE PEQUEÑO D QUINTITO TERE NA


E|--5--4----2--2-0---2----------------------|
B|---2---2---2-2-0---2----------------------|
G|-------------------2----------------------|
D|-------------------4----------------------|
A|-------------------4----------------------|
E|-------------------2----------------------|



acordes:

   A   A6  A7  D   Dm  F# 
E|--0---0---0---2---1---2---------------------|
B|--2---2---2---3---3---2---------------------|
G|--2---1---0---2---2---2---------------------|
D|--2---2---2---0---0---4---------------------|
A|--0---0---0---0---0---4---------------------|
E|--0---0---0---0---0---2---------------------|
00:00 / 00:00
Otros videos de esta canción
Repetir
Otros videos de esta canción
Composición de Saul Hernández
17 exhibiciones
    • ½ Tono
    • Am
    • Bbm
    • Bm
    • Cm
    • C#m
    • Dm
    • Ebm
    • Em
    • Fm
    • F#m
    • Gm
    • G#m
  • Agregar a la lista
    00:00 / 00:00
    OK