Cifra Club

Clavame Mejor Los Dientes

Jaguares

Cifrado: Principal (guitarra y guitarra eléctrica)
tono: C
< = bending up
> = bending down

INTRO RIFF 1
D--------------------
A--------5---------0-
E--0-2-3---3-2-3-2---

RIFF2                   RIFF 3
e------------           e----2-------2----2---2-
B------------           B------3------3---------
G------------           G--------2------2---2---
D------------           D--0--------------------
A----------0-           A-----------------------
E--0-2-3-2---           E-----------------------

INTRO

RIFF 2

 Am           C
NADA DE LO QUE HAGAS TU
G               D       RIFF 3
ME HARA DEJAR DE QUERERTE
 Am            C
CADA VEZ QUE TU TE VAS 
G            D             RIFF 4
JAMAS TE VAS SOLO TE PIERDES


RIFF 4
G----------------------
D----------5-7-7-7-5---
A--5-5-5-7-----------0-
E----------------------


CORO:
 Am         C            D
DIME SI DE VERAS CREES QUE SE PUEDEN 
              A
DESVIAR A LOS PLANETAS
      C              D
DE UNA TRAYECTORIA DE COLISION

* ENTRE EL CORO LLEVA UN ARREGLO COMO ESTE:
e---------------
B---------------
G------9->---
D--0~-----------

RIFF 2

 Am            C
SI LO QUE PRETENDES ES 
G             D          RIFF 1
HACERME SANGRAR NUEVAMENTE
 Am            C
CLAVAME MEJOR LOS DIENTES
G                  D      RIFF 4
O ENTIERRAME TODAS LAS UÑAS


SOLO:
   A#                                                         A
e--------------5-5-5-------------------------------------5-5-5-4-4-
B--3--3-5-3-5--------3~----3---5--3------3---3-5-3-5------------
G--------------------------------------3~--------------------------

RIFF 1

 
 Am          C
QUE MANERA DE JUGAR
G                 D          RIFF1
DEJARME PERDIDO ENTRE LA GENTE
 Am          C
SI SE TRATA DE JUGAR 
G                D            RIFF 4
TUS LABIOS SON MAS INTELIGENTES


SE REPITE HASTA DESVANECER EL SONIDO

SE REPITE EL CORO

AHORA EL ULTIMO SOLO CON MUCHO SUSTAIN Y NOISE GATE
E|---------------------------------------------------------|
B|--5/7---5-7-5---3-5-3--------------1-3-5-7--5-7-7--------|
G|-----------------------5--4--2--4------------------------|
D|---------------------------------------------------------|
A|---------------------------------------------------------|
E|---------------------------------------------------------|

E|--------------------------------------15--17-------------|
B|--------------10--12--13--15--17--18---------------------|
G|--tiempo--12---------------------------------------------|
D|---------------------------------------------------------|
A|---------------------------------------------------------|
E|---------------------------------------------------------|

Bueno aqui esta la rola tiene q escucharla para seguir el ritmo
como siempre va dedicada a mi raza jaguar y a mis amigos.
00:00 / 00:00
Otros videos de esta canción
Repetir
Otros videos de esta canción
Composición de Jose Manuel Aguilera
150 exhibiciones
    • ½ Tono
    • A
    • Bb
    • B
    • C
    • Db
    • D
    • Eb
    • E
    • F
    • F#
    • G
    • Ab
  • Agregar a la lista
    00:00 / 00:00
    OK