Cifra Club

El Milagro

Jaguares

Cifrado: Principal (guitarra y guitarra eléctrica)
tono: D
Verso 1:

G                 G#
El milagro es una luz
G#                G
Una hoguera mi trinchera
G            G#
Una esponja tu mano 
G#               G
Mi deseo tu cuerpo.

E|------------------------------|
B|------------------------------|
G|---/9---7/8----5/6--4---------|
D|------7------5--------2-------|
A|------------------------------|
E|------------------------------|

G                      Eb
Es la conciencia, es una lágrima
                G
De mi forma de resistencia 
                   Eb
Es mi sacramento exacto
                      G
Es tu gangrena es mi impotencia.

G               G#
Es una bola de pasión 
              G
Es mi justificación
              G#
Es una mansión desierta 
            G
Es una misión secreta.

G             Eb
Es una revolución 
              G
Una mutación total
               Eb
Un escape al más allá 
            G
Una lucha mortal.

Coro:

       5x            4x
E|------------|-----------|
B|--2h3p2-----|--2h5p4p3--|     
G|------------|-----------|
D|------------|-----------|
A|------------|-----------|
E|------------|-----------|

         F#m         G
Es una hiena es una rosa

E|------------------------------------------|
B|---2-------------------------------17-16--|
G|-----5-3-2-3~----12-13-14-15-16-17--------|
D|------------------------------------------|
A|------------------------------------------|
E|------------------------------------------|
A           Bm
Es un milagro, poderte creer
         x5         x4
E|-----------|------------|
B|--2h5p4p3--|--2h3p2-----|    
G|-----------|------------|  
D|-----------|------------|
A|-----------|------------|
E|-----------|------------|
         F#m
Es Luna llena y no te afecta

E|-----------------------------------------|
B|---2-------------17-16-15-14-13-12-11-12-|
G|-----5-3-2-3~----------------------------|
D|-----------------------------------------.
A|-----------------------------------------|
E|-----------------------------------------|
A                 Bm
Es un milagro poderte querer.

Verso 3:

G                G#
El milagro es corazón
            G
Reciclable etéreo
              G#
Es un altar una oración
             G
Una elevación una sombra.


G                 Eb
Una pantera es una mandril
              G
Un código infantil
                     Eb
Es una herida es un reptil
                    G
La esperanza es la deidad.

G                 G#
Es el vacío en tu matriz
             G
El cielo entre los dos 
             G#
La mentira subliminal
                      G
El creer que estamos bien.

G                      Eb
Es un derrame es un guerrero
                 G
Una danza en la montaña
           Eb
Una rebelión eterna
              G
Es genético es mortal.

Coro:

       F#m         G
Es una hiena es una rosa
A           Bm
Es un milagro, poderte creer
         F#m
Es Luna llena y no te afecta
A                 Bm
Es un milagro poderte querer.

Salida:

E|-----------------------------------------|
B|-----------------------------------------|
G|--9/10--10-10-10-11-10-11-10-11-10-11----|
D|-----------------------------------------|
A|-----------------------------------------|
E|-----------------------------------------|

E|-----------------------------------------|
B|-----------------------------------------|
G|-11-11-11-11/12-12-13-12-13-12-13-12-13--|
D|-----------------------------------------|
A|-----------------------------------------|
E|-----------------------------------------|

E|------------------------------|
B|------------------------18----|
G|--------------------18--------|
D|--------------16-17-----------|
A|--12-13-14-15-----------------|
E|------------------------------|
00:00 / 00:00
Otros videos de esta canción
Repetir
Otros videos de esta canción
Composición de Saul Hernández
Colaboración y revisión:
  • Johan Beltrán
89 exhibiciones
    • ½ Tono
    • A
    • Bb
    • B
    • C
    • Db
    • D
    • Eb
    • E
    • F
    • F#
    • G
    • Ab
  • Agregar a la lista
    00:00 / 00:00
    OK