Cifra Club

Fin

Jaguares

Cifrado: Principal (guitarra y guitarra eléctrica)
tono: D
E|----10----------------------------10----------------------|
B|--8-----8-------------7h8p7-----8-----8-------------7h8p7-|
G|-7-7------7-7~~~--------------7~-7------7-7~~~------------|
D|----------------------------------------------------------|
A|--------------------------x2--------------------------|

Guitarra 2
E|----10-----10-----10-----10-------10-----10-----10-----10--|
B|--8-----8------8------8---------8-----8------8------8------|
G|-7-7------7------7------7-----7--7------7------7------7----|
D|-----------------------------------------------------------|
A|-------------------------x2---------------------------|


Esta bajo acompaña despues en la segunda vez que se
hace el intro (en el final tambien, pero cambia)

Bajo del Intro
G|----------------------------5s7---11s12-10-|
D|-5s7-5~--4----4-5---7s9-7------------------|
A|-----------7-------------------------------|
E|-------------------------------------------|

II. VERSOS
Cada vez que en los versos se toque C9, se toca tambien el Riff
del intro.

Ahora los solos, que son 'Slides'. En este caso Sabo Romo posiciona
el slide ligeramente adelantado del siguiente traste con respecto a
estos tabs. Para los que no tienen idea un ejemplo:  e|--1s3~----|
(Si lo haces solo con los dedos no sonaran igual)
           de aqui         hasta aqui

           /---------------       nota que es CAB  sobre el traste,
 e|       |*      |       |*     |      pero no el siguiente.
 B|       |       |       |      |
 G|       |       |       |      |
trastes   1o      2o      3o     4o
 A|       |       |       |      |
E|-------|-------|-------|------|---|

Slide 1
E|-1s2~---------------1s2~--------------1s3~------|
B|------------------------------------------------|
   me suicido       cayendo al mundo  con mis alas
 te doy mis cielos  todos mis sueños  con tal de ver el calor

III. COROS
Slide 2
E|-------------------12s10s15~------------------------|
B|----------------------------------------------------|
fiin, todo tiene un fin          menos el fuego de tus ojos

que se pieeerden
E|-------------------12s8~~s10~-----------------------|
B|----------------------------------------------------|
profundo en el misterio          de las historias que no cuentan

E|----------8s12-12-12s10-10-12s15-15-15s12-12---12~~~---|
B|-------------------------------------------------------|
       celestial calor del sol

Luego el Intro y todo se repite segun los versos y los coros.

IV. FINAL
Termina con el mismo Intro
Bajo del Final
G|----------------------------|
D|-5s7-5~--4----4-5---7s9-7---|
A|-----------7----------------|
E|----------------------------|
como el del intro,
pero mas corto y va dos veces.

Buena suerte y si tienen algun comentario:
E|------------------------------------------------|
00:00 / 00:00
Otros videos de esta canción
Repetir
Otros videos de esta canción
Composición de Saul Hernández
115 exhibiciones
    • ½ Tono
    • A
    • Bb
    • B
    • C
    • Db
    • D
    • Eb
    • E
    • F
    • F#
    • G
    • Ab
  • Agregar a la lista
    00:00 / 00:00
    OK