Cifra Club

Huracan

Jaguares

Chords: Principal (acoustic and electric guitars)
tone: Am
INTRO (0:00 - 0:30)

Guitarra 1 (Distorsión & Echo)
E|---------------------------------------------------------15----|
B|-------------------------------------------------------13------|
G|-/6~------6/7~------7/96~------6-7/9~------10/12~--/12---------|
D|---------------------------------------------------------------|
A|---------------------------------------------------------------|
E|---------------------------------------------------------------|
Guitarra 2 (Clean, Reverb, Eco)
E|---------------------------------------------------------------|
B|--(2)------(2)-------------------------------------------------|
G|-4---------2------------(2)----------(2)-------(0)-------------|
D|-4----2-4--4-----------2------------3---------2----------------|
A|-2---------5-----------4------------3---------3----------------|
E|-----------------------5------------1---------3----------------|


VERSOS
Guitarra 1 (Clean & Delay 150bpm)
E|--------------------------------------7p5---------7-----|
B|-7p5---------7p5--------7p5-------------------------8---|
G|--------------------------------------------------------|
D|--------------------------------------------------------|
A|--------------------------------------------------------|
E|--------------------------------------------------------|
Guitarra 2 (Clean & Delay 150bpm)
E|--------------------------------------------------------|
B|-2-----------2------------------------------------------|
G|-4-----------2-----------2------------2-----------0-----|
D|-4-----------4-----------2------------3-----------2-----|
A|-2-----------5-----------4------------3-----------3-----|
E|-------------------------5------------1-----------3-----|
 Sabes…                                Ni siquiera…

PUENTE
Guitarra 1 (Clean & Delay 150bpm)
E|------------------------5------------------8------------------|
B|------------6-------------------------9------9---------6---5--|
G|--------5-7---------5--------------10---10-----------5---5----|
D|------8-----------7---7---------10-----------------5----------|
A|----8-----------8---------------------------------------------|
E|-/6-----------------------------------------------------------|
Guitarra 2 (Mínima Distorsión)
E|-----------------------------------------------------------0--|
B|----------3------------1-------------------6-------------1----|
G|------3--------------2----------------5------6---------0------|
D|----3---3----------3---------------3----3------------2--------|
A|--1--------------3--------------3------------------3----------|
E|---------------1----------------------------------------------|
   A#           F                C/F                C

CORO
Guitarra 1 (Distorsión)
E|--------------------------------------|----------------------------------|
B|--------------------------------------|----------------------------------|
G|-2-----------------2------------------|---------2---5h7-7^7^7^7^7^7^7-5--|
D|-2--------2--------3----------2-------|-3---2---2-----------------------7|
A|-0--------3--------2----------2-------|-3---2---0------------------------|
E|------------------------------0-------|-1---0----------------------------|

E|--------------------------------------|--------------------------0-------|
B|-----1--------1-----------------------|----------------------------1-----|
G|-------2--------0-------2-----------1-|----------------------2-------2---|
D|---2--------2---------3---3-------2---|-----3-------2------2---2-------2-|
A|-0--------3---------2-----------2-----|---3---3---2---2--0---------------|
E|------------------------------0-------|-1-------0------------------------|
 Am        C        Bdim       E         F5      E5      Am



G  O
Guitarra 1 (Distorsión) Guitarra 2 (repite el coro hasta el final)
E|-------------------------------------------------------------------------|
B|-------------------------------------------------------------------------|
|7^--7^7^7^7^7^7br-5-7-5h7p4--------7-9-10-9-7-9---10-12-10h12p9----------|
D|--------------------------------/10--------------------------------------|
A|-------------------------------------------------------------------------|
E|-------------------------------------------------------------------------|

(4:01)
E|----------------------------------------------------------------12-----|
B|----------------10---13-12---/13~-12-10-13~-12-10-15^--13-12-9-----9---|
|7-9-5~-5-7-5-4-----9---------------------------------------------------|
D|-----------------------------------------------------------------------|
A|-----------------------------------------------------------------------|
E|-----------------------------------------------------------------------|
(4:12)
E|--------------------------------------------------------|
B|--------------------------------------------------------|
G|-2^--0-2-0-------------0-2-0h2p0-0-2-4-5-4h5p4h5p4h5p4--|
D|-----------2---------2----------------------------------|
A|-------------3-2-0-3------------------------------------|
E|--------------------------------------------------------|
(4:17)
E|-15^----15^15^15br---------------------------12---------|
B|-------------------15-17-15-13-12-15-13-12-9~---9-------|
G|--------------------------------------------------------|
D|--------------------------------------------------------|
A|--------------------------------------------------------|
E|--------------------------------------------------------|
(4:23)
E|--------------------10-12-10h12p10---12------15-17-15h17p15-171717/191919|
B|-10-10-10br-8-10-12----------------13-----/17----------------------------|
G|-------------------------------------------------------------------------|
D|-------------------------------------------------------------------------|
A|-------------------------------------------------------------------------|
E|-------------------------------------------------------------------------|
(4:30)
E|---------------------------------------------------|
B|--------------------------------------------9999~--|
G|-/99999/99999/7777774/9~-/99999/99999/77777--------|
D|---------------------------------------------------|
A|---------------------------------------------------|
E|---------------------------------------------------|
(4:42)
E|----------------------------------|
B|-/10| (18 veces) 12tr-13tr---------|
G|----------------------------------|
D|----------------------------------|
A|----------------------------------|
E|----------------------------------|
(4:48)
E|------------------------------------------------|
B|--------5--------------------------------5------|
|7^--5-7---7-5-7p5---5--5a5a5a5a-5br4-5-4---4----|
D|------------------7-----------------------------|
A|------------------------------------------------|
E|------------------------------------------------|
(4:54)
E|-----------------------------/4-----------------|
B|--------------------------------5---------------|
|5â--------------------------------5-------------|
E|---7-5---------------5-7a-----------7~----------|
B|-------7-----------7----------------------------|
G|---------8-7-5-8--------------------------------|
(5:01)
E|-----------------------------------------------------------------131312~|
B|-/10h13p10-13p10h13T17p13p10-8h10p8h10T17p13~--/13131313-15-13-12-------|
G|------------------------------------------------------------------------|
D|------------------------------------------------------------------------|
A|------------------------------------------------------------------------|
E|------------------------------------------------------------------------|
(5:07)
E|---------------------------------------------------------------------|
B|-15fb-15-13-15-13-121312--12-----------------------------------------|
G|------------------------14--14121412---------------------------------|
D|------------------------------------14------12p10h12~--12-10-12-14a--|
A|---------------------------------------------------------------------|
E|---------------------------------------------------------------------|
(5:13)
E|--------------------------------------------------------|
B|---10---13-12------------------------------------/9~----|
G|-9----9-------12-14-12-9~--7-9-7h9p7-5-7-5h7p5-4--------|
D|--------------------------------------------------------|
A|--------------------------------------------------------|
E|--------------------------------------------------------|
(5:19)
E|---------------------------------------------------------------------|
B|-/10~10~10~10a10a10a10a1010a10~1010a10a10a10~10a10~1010a10a10a10fb---|
G|---------------------------------------------------------------------|
D|---------------------------------------------------------------------|
A|---------------------------------------------------------------------|
E|---------------------------------------------------------------------|
(5:32)
E|--------------------------------------------------------|
B|--------------------------------------------------------|
G|--------------------------------------------------------|
D|-7-5-------//-------------------------------------------|
A|-----7--------------------------------------------------|
E|-------8~~~---------------------------------------------|

BMB OLOGIA
/ Deslizar (Adelante)
 Deslizar (Atrás)
~ Vibrato
()Mantener nota
h Hammer On
p Pull Of
^ Bend
fb Full Bend
br Bend & Release
tr Tremolo Picking
T  Tap
A  Harmonico Artificial
â  Harmonico Artificial con Bend
00:00 / 00:00
Other videos of this song
Repeat
Other videos of this song
Composed by Saul Hernández
15 views
    • ½ Tone
    • Am
    • Bbm
    • Bm
    • Cm
    • C#m
    • Dm
    • Ebm
    • Em
    • Fm
    • F#m
    • Gm
    • G#m
  • Add to list
    00:00 / 00:00
    OK