Cifra Club

Nunca Te Doblaras

Jaguares

Cifrado: Principal (guitarra y guitarra eléctrica)
tono: D

INTRO:

GUITARRA 1   Saul Hernandez

B----------------------
G----------------------
D--6-6-6-8-6-8-9/------

B----------------------
G----------------------
D--6-6-6-8-6-8-9/------  

   GUITARRA 2  Vampiro 

e|--7--7--6--6--------------
B|--9-----------9--9--------
G|--9-----------------9--9--
D|--------------------------
A|--------------------------
E|--------------------------


VERSOS:
ESTO ES LO QUE TOCA EL VAMPIRO
MIENTRAS SAUL HACE UN ARPEGIO CON LO ACORDES

RIFF 1 (X2)
e|------------------12--12--12--12--16------------------16--12--12--12--12--
B|--14--14--14--14--14--14--14--14--16--14--14--14--14--16--14--14--14--14--
G|--13--13--13--13----------------------13--13--13--13----------------------
D|--------------------------------------------------------------------------
A|--------------------------------------------------------------------------
E|--------------------------------------------------------------------------

RIFF 2
e|------------------
B|--15--14--12--15--
G|--15--14--12--15--
D|------------------
A|------------------
E|------------------

SE REPITE RIFF 1


CORO:

e|---------------------------------------------
B|------------------7--------------------------
G|-----7-----7-------------------------10------
D|----------------------------6--8/12------11--
A|--6-----9-----10------6--8-------------------
E|---------------------------------------------

AQUI ESTA LA ROLA ESPERO LES GUSTE, ESTA MUY CHIDA ESCUCHEN LA ROLA DEL DISCO
MIS AMIGOS.
00:00 / 00:00
Otros videos de esta canción
Repetir
Otros videos de esta canción
Composición de Pepe Sanchez
204 exhibiciones
    • ½ Tono
    • A
    • Bb
    • B
    • C
    • Db
    • D
    • Eb
    • E
    • F
    • F#
    • G
    • Ab
  • Agregar a la lista
    00:00 / 00:00
    OK