Cifra Club

Se va la murga

Jaime Roos

Cifrado: Principal (guitarra y guitarra eléctrica)
tono: Am
E-|-------------------------------------

e-|-------------------------------------|
b-|----------------5-5-3-3-1--0~1-------|
g-|-4-4--4-4-2-2-1----------------2-0-2-|
d-|-------------------------------------|
a-|-------------------------------------|
E-|-------------------------------------|


e-|-3-3-3-3-3-3-3-----------------------|
b-|-1-1-1-1-1-1-1-----------------------|
g-|-------------------------------------|
d-|-------------------------------------|
a-|-------------------------------------|
E-|-------------------------------------|

Am      Dm Am
Recordaron sus labios
E  Am
La diferencia
E               Am
Del gusto del café
Am           Dm  Am
'El mundo es uno solo
   E  Am
Y las nostalgias
E            Am
Espejismo nomás'
Se clavó su mirada
En la leyenda
Que ordenaba en francés
'Mis pies sobre la ruta
E  pensamiento
Vuela universal'
El viento lo entonaba
Y se acordaba
De un saludo cordial
A  música inmigrante
Le preparaba
Un encuentro casual
Y así como venía
Le dio de punta
A una pelota fugaz
Flotaba aún la idea
Contradiciendo
El sentido común
De corte sensiblero
Palabra seria
Ritmo trascendental
G       F     E
Era una retirada
   C#m Bm     Am
Que al despedirse
E           Am
Quiere regresar '...
Se va se va la murga
Aunque ya nunca
Pueda decir adiós
Y a la gentil barriada
Va dedicada
Nuestra humilde canción...'
'Mis pies sobre la ruta
Los sentimientos
Señalan al Sur'
El rumbo es uno solo
Y las nostalgias
Nos ayudan a andar
'Era una retirada
Que al despedirse
Quiere regresar '...
Se va se va la murga
Aunque ya nunca
Pueda decir adiós...
00:00 / 00:00
Otros videos de esta canción
Repetir
Otros videos de esta canción
Composición de Jaime roos
17 vistas
    • ½ Tono
    • Am
    • Bbm
    • Bm
    • Cm
    • C#m
    • Dm
    • Ebm
    • Em
    • Fm
    • F#m
    • Gm
    • G#m
  • Agregar a la lista

    0 comentarios

    Ver todos los comentarios

    ¿Lograste tocar?

    0 Tocaron 0 Aún no

    ¡Graba un video tocando Se va la murga y envíanoslo!

    00:00 / 00:00
    OK