Cifra Club

Te quería decir

Jaime Roos

Cifrado: Principal (guitarra y guitarra eléctrica)
tono: F#m
Intro (Comienza en A A7 hasta que empieza el punteo)

BASE - A D E A F#m Bm E E7 A A7 D Dm A B7 Bm E E7 A A7 D Dm A B7 Bm E E7 A

E|----------------------------------------------------|
B|----------------------------------------------------|
G|---------2------------------------------------------|
D|-----0-2------2-0---------0-2-2-2----------0-----0--|
A|-4-4-------4--------2-2-4----------0-0-2-4---4-4----|
E|----------------------------------------------------|

E|---------------------------------------------------------------|
B|---------------------------------------------------------------|
G|------------------------2-2-2-2---------2-2-2-2--------2-2-2---|
D|-------------2--2-2-2-2---------0-0-0-0---------1-1-1-1------0-|
A|-----0-2-0-----------------------------------------------------|
E|-4-------4----------------------------------------------------|

E|---------------------------------------------------------------------------|
B|---------------------------------------------------------------------------|
G|-----------------------2-2-2-2---------2-2-2-2--------2-2-2----------------|
D|------------2--2-2-2-2---------0-0-0-0---------1-1-1-1------0--------------|
A|---0-2-0----------------------------------------------------------0-2-0---0|
E|-4-------4---------------------------------------------------4-4-------4--|

A                 D
Quisiera decirte algo
E                     A
no se muy bien lo que es
F#m              Bm
vivo pensando en verte
E          A   A7
una y otra vez

A7               D
Ambos nos asombramos
Dm                A
de saber que es acá
B7                  Bm
de saber que va en serio
E    E7        A   A7
de dejarnos llevar


A7               D
Se que voy a guardarme
Dm             A
guardarme para ti
B7                  Bm
eso es lo que siento
E  E7      A   A7
te quería decir

A                 D
Para los enamorados
E                   A
no existe frío o calor
F#m              Bm
ni siquiera cansancio
E             A   A7
solo existe obsesión


A7               D
Amo que cada jornada
Dm             A
sea nada mas que ansiedad
B7            Bm
descifrar taconeos
E  E7          A     A7
adivinar que llegarás


A7           D
Regalame tiempo
Dm             A
tiempo junto a mi
B7            Bm
lo demás es la gloria
E  E7     A     A7
te quería decir
00:00 / 00:00
Otros videos de esta canción
Repetir
Otros videos de esta canción
Compositor no encontrado.
18 vistas
    • ½ Tono
    • Am
    • Bbm
    • Bm
    • Cm
    • C#m
    • Dm
    • Ebm
    • Em
    • Fm
    • F#m
    • Gm
    • G#m
  • Agregar a la lista

    0 comentarios

    Ver todos los comentarios

    ¿Lograste tocar?

    0 Tocaron 0 Aún no

    ¡Graba un video tocando Te quería decir y envíanoslo!

    00:00 / 00:00
    OK