Cifra Club

Move Together

James Bay

Cifrado: Principal (guitarra y guitarra eléctrica)
tono: C
Afinação: DGCFAd

Intro - Riff 1:

    ↑                    ↑              ↑
    C   ↓  ↓   ↑   ↑  ↑  Am ↓  ↓  ↑ ↓   G    ↓  ↑  ↓
D|--3---3--3---3---3--3--3--3--3--3-3---3----3--3--3--|
A|--1---1--1---1---1--1--1--1--1--1-1---1----1--1--1--|
F|--0---0--0---0---0--0--0--0--0--0-0---0----0--0--0--|
C|--0h2--------0h2-0--0--2--------2-2---0-------0-----|   2x
G|--3----------3---3--0--0--------0-0---0-------0-----|
D|--X----------X---X--3--X--------X-X---3-------3-----|

Pré-Refrão - Riff 2:

    ↑                     ↑             ↑             ↑             ↑  
    C   ↓  ↓   ↑   ↑  ↑   F   ↓  ↑  ↓   Am/C↓  ↑  ↓   F   ↓  ↑  ↓   F/C↓  ↑  ↓
D|--3---3--3---3---3--3---0---0--0--0---0---0--0--0---0---0--0--0---1--1--1--1--|
A|--1---1--1---1---1--1---1---1--1--1---3---3--3--3---1---1--1--1---1--1--1--1--|
F|--0---0--0---0---0--0---2---2--2--2---2---2--2--2---2---2--2--2---2--2--2--2--|
C|--0h2--------0h2-0--0---3------3------0------0------3------3------3--3--3--3--|
G|--3----------3---3--0---3-------------3------3------3-------------3--3--3--3--|
D|--X----------X---X--3---------------------------------------------------------|

Refrão:

    C     Am    G     F   (Variação)
D|--3-----0-----3-----0----0--0--0---0--0--|
A|--1-----1-----0-----1----1--1--1---1--1--|
F|--0-----2-----0-----0h2--2--2--0h2-0--0--|
C|--2-----2-----0-----3----3--3--3---3--0--|  
G|--3-----0-----2-----3----3--3--3---3--3--|
D|--X-----X-----3-----X----X--X--X---X--X--|

   G6/E   F9    Em7   Dm7    E7   F7M/C Am7/Eb Dm7(13)
D|--X-----X------7-----5-----0-----0-----5-----7-----|
A|--8-----10-----8-----6-----5-----1-----5-----6-----|
F|--0-----0------7-----5-----7-----2-----5-----5-----|
C|--X-----10-----9-----7-----6-----3-----5-----7-----| 
G|--7-----8------7-----5-----7-----3-----6-----5-----|
D|--X-----X------X-----X-----X-----X-----X-----X-----|

Intro 2x: C  Am  G

C        Am G              C Am G
Home now... end of the night
     C       Am  G               C Am  G
It's colder... to turn on your side
      C          Am  G         C   Am  G
And I know you're... up in two hours
   C                                    Am
We didn't get tonight, we don't have tomorrow
   G             C    F  Am/C  F/C (Riff 2)
So don't ruin now.

C            Am       G               F
How we gonna move together? Just come closer
C           Am        G               F
If we don't move together, just come closer
G6/E              F9                    Em7         Dm7  E7  F7M/C
     How we gonna breathe? How we gonna be together?
     Am7/Eb     Dm7(13)                  C    Am G
Just keeping the peace between the sheets

      C        Am G            C    Am G
And I creep in... everything's loud
    C     Am     G           C  Am G
I'm sorry... for waking you now
       C     Am     G        C   Am G
And we argue... the tiniest thing
   C                                   Am
We didn't get tonight, we don't have tomorrow
       G              C    F  Am/C  F/C (Riff 2)
So I'm done whispering, done whispering.

C            Am       G               F
How we gonna move together? Just come closer
C           Am        G               F
If we don't move together, just come closer
G6/E              F9                    Em7         Dm7  E7  F7M/C
     How we gonna breathe? How we gonna be together?
     Am7/Eb     Dm7(13)                  C    Am G
Just keeping the peace between the sheets

C                                  Dm
So maybe don't give me cold, cold shoulder
Am                                F
Before you go turn around, let me hold you
C                 Dm
Let me sit in the dark of the morning
F  Am/C  F/C (Riff 2)
      Yeah, it's more one thing now

C            Am       G               F
How we gonna move together? Just come closer
C           Am        G               F
If we don't move together, just come closer
G6/E              F9                    Em7         Dm7  E7  F7M/C
     How we gonna breathe? How we gonna be together?
                  C        F
Just keeping the peace...
                  C        F
Just keeping the peace...
     Am7/Eb          Dm7(13)                  C
Just keeping the peace      between the sheets
00:00 / 00:00
Otros videos de esta canción
Repetir
Otros videos de esta canción
Composición de James Bay / Jamie Hartman
Colaboración y revisión:
  • Marcos Yamasaki
647 vistas
    • ½ Tono
    • A
    • Bb
    • B
    • C
    • Db
    • D
    • Eb
    • E
    • F
    • F#
    • G
    • Ab
  • Agregar a la lista

    0 comentarios

    Ver todos los comentarios

    ¿Lograste tocar?

    1 Tocaron 0 Aún no

    ¡Graba un video tocando Move Together y envíanoslo!

    00:00 / 00:00
    OK