Cifra Club

I Got You (I Feel Good)

James Brown

Cifrado: Principal (guitarra y guitarra eléctrica)
Selo Cifra Club: esta cifra foi revisada para atender aos critérios oficiais da nossa Equipe de Qualidade.
tono: D
Ohhhhhhhhhhhhhh !
                      
         D7
I feel good
                    D7
I knew that I would now
       G7
I feel good
                      D7
I knew that I would now
   A7         G7               Riff 1
So Good,   So Good,   I Got You !

Ohhhhhhhhh !

         D7
I feel nice
                D7
Like sugar and spice
       G7
I feel nice
                 D7                     
Like sugar and spice
    A7        G7                    Riff 1 
So Nice,  So Nice,  'Cause I Got You! 

Riff 2 (2x)
                      
G7
When I hold you In my arms
  D7
I know I can't do no wrong now
G7
When I hold you in my arms
    A7                        A7
My love can't do me no harm    

         D7
I feel nice
                D7
Like sugar and spice
       G7
I feel nice
                 D7                     
Like sugar and spice
    A7        G7                  Riff 1 
So Nice,  So Nice,  'Cause I Got You

Riff 2 (2x)

G7
When I hold you In my arms
  D7
I know I can't do no wrong now
G7
When I hold you in my arms
    A7                        A7
My love can't do me no harm    

         D7
I feel nice
                D7
Like sugar and spice
       G7
I feel nice
                 D7                     
Like sugar and spice
    A7        G7                  Riff 1 
So Nice,  So Nice,  'Cause I Got You

Riff 2 (2x)

G7
When I hold you In my arms
  D7
I know I can't do no wrong now
G7
When I hold you in my arms
    A7                        A7
My love can't do me no harm    

         D7
I feel good
                    D7
I knew that I would now
       G7
I feel good
                      D7
I knew that I would now
   A7         G7              Riff 1
So Good,   So Good,   I Got You !


       A7       G7               Riff 1
So Good  So Good  'Cause I got you
       A7       G7               Riff 3
So Good  So Good  'Cause I got you

                   D7   
Hey ..........     Yeah

(Riff 1)

e|------------------------------|
B|-----------5------------------|
G|------2--5--------------------|
D|----4-------------------------|
A|--5---------------------------|
E|------------------------------|

(Riff 2)

e|-----10--8------8-------------|
B|------------10-----10---------|
G|--7-----------------------10b-|
D|------------------------------|
A|------------------------------|
E|------------------------------|
               ou
e|-----------------------|
B|----3------------------|
G|---------5--2--5--2----| 
D|------4-------------3b-|
A|--5--------------------|
E|-----------------------|

(Riff 3)

e|------------------------------|
B|-----------5--3---------------|
G|------2--5------5--2----------|
D|----4----------------5--3b----|
A|--5---------------------------|
E|------------------------------|
Otros videos de esta canción
    171.989 exhibiciones
    • Simplificar cifrado
      • ½ Tono
      • A
      • Bb
      • B
      • C
      • Db
      • D
      • Eb
      • E
      • F
      • F#
      • G
      • Ab
    • Agregar a la lista

    Afinación de cifrado

    Afinador online

      OK