Cifra Club

Three Days

Jane's Addiction

Tab de bajo: Principal
From: * (B. Underwood)
Newsgroups: *


When I was just starting bass, this song was my Holy Grail for a while...

--- cut here ---
Album: Ritual de lo Habitual

G ---------4-4-0h2p0---0h2p0-------------------------------------------
D -------------------4-------4-----------------------------------------
A -0h2-2-2---------------------0h2-2-2-2-2-2---------------------------
E -------------------------------------------3-3-2-2-------------------

Repeat that a whole bunch. Occasionally you will need to do the hammer/pull
thing three times instead of two.

Then there's a bridge I haven't figured out.

Then the song ends with:

G -----------------
D -----0-2-----0---.
A -0-2-----0-2---2-.
E -----------------

for quite some time more.
There ya go.

--
*                                          PGP2.3 key via finger

White boy with algorithm.
Booga.
00:00 / 00:00
Otros videos de esta canción
Repetir
Otros videos de esta canción
Composición de Jane's Addiction
58 exhibiciones
00:00 / 00:00
OK