Cifra Club

La Flaca

Jarabe de Palo

Cifrado: Principal (guitarra y guitarra eléctrica)
Selo Cifra Club: esta cifra foi revisada para atender aos critérios oficiais da nossa Equipe de Qualidade.
tono: Am
[Intro] Am  E  D
        F/A  E/G# 
        Am  E7

[Tab - Intro]

Parte 1 de 4
            P.M..  .  .  .  .  .  . 
            Am
E|--------------------------------------|
B|--------------------------------------|
G|--------------------------------------|
D|-----------2--2--2--2--2--2--2--2-----|
A|-----------0--0--0--0--0--0--0--0-----|
E|--0--3--0-----------------------0-----|

Parte 2 de 4
  P.M. .   .   .   .  
   E 
E|--------------------------------------|
B|--------------------------------------|
G|---------------------7\6--5-----------|
D|-9---9---9---9---9---6\5--4-----------|
A|-7---7---7---7---7---7\6--5-----------|
E|--------------------------------------|

Parte 3 de 4
  P.M. .  . . . .
   D                 F/A  E/G#
E|--------------------------------------|
B|--------------------------------------|
G|--------------5------5----4-----------|
D|-----7--------7------3----2-----------|
A|-5-5-5--5-5-5-------------------------|
E|-----------------0-5----4----4-0-3-0--|
 
Parte 4 de 4
  P.M. .  . . . .
   Am                  E7
E|--------------------------------------|
B|--------------------------------------|
G|-------------------------7-7---7b-5---|
D|---------------------6-6-6-6---6b-5---|
A|-----7--------7------7-7-7-7----------|
E|-5-5-5--5-5-5-5--0--------------------|

E|--------------------------------------|
B|-15b16r15b16--------------------------|
G|--------------------------------------|
D|--------------------------------------|
A|--------------------------------------|
E|--------------------------------------|

[Primeira Parte]

Am                   E7            
   En la vida conocí    
                       D7
Mujer Igual a la flaca
                         C
Coral negro de La Habana
       E7           Am
Tremendísima mulata
                            E7
Cien libras de piel y hueso
                      D7
Cuarenta kilos de salsa
                    F7  E7    
Y en la cara dos soles 
                  F     F#  G
Que sin palabras hablan
                  Am    E7
Que sin palabras hablan

Am                      E7
   La flaca duerme de día
                          D7
Dice que así al hambre engaña
                  C                    
Cuando cae la noche baja 
    E7(9-)        Am
A bailar a la tasca
               E7                 D7
Y bailar y bailar y tomar y tomar
                      F7  E7                    
Una cerveza tras otra    
                   F    G
Pero ella nunca engorda
                   Am   D7
Pero ella nunca engorda

[Refrão]

F                     G                  
  Por un beso de la flaca 
               Am
Daría lo que fuera
             D                        
Por un beso de ella 
                  F   
Aunque sólo uno fuera
                    G                  
Por un beso de la flaca 
               Am
Daría lo que fuera
            D7                        
Por un beso    de ella 
                  F   F#  G   
Aunque sólo uno fuera
                  Am  E7  
Aunque sólo uno fuera

[Segunda Parte]

Am                    E7            
   Mojé mis sabanas blancas
                  D7
Como dice la canción
                  C         
Recordando las caricias 
         E7(9-)           Am
Que me brindó el primer día
                   E7                     
Y enloquezco de ganas 
                    D7
De dormir a su ladito
                       F7              
Porque Dios que esta flaca 
      E7           F  F#  G
A mí me tiene loquito
                  Am  D7
A mí me tiene loquito

[Refrão]

F                     G                  
  Por un beso de la flaca 
               Am
Daría lo que fuera
             D                        
Por un beso de ella 
                  F   
Aunque sólo uno fuera
                    G                  
Por un beso de la flaca 
               Am
Daría lo que fuera
             D7                        
Por un beso de ella 
                  F   F#  G   
Aunque sólo uno fuera

                  Am  B7
Aunque sólo uno fuera
        E7        F   G
Aunque sólo uno fuera
                  Am  B7  
Aunque sólo uno fuera
        E7        F   G  Am
Aunque sólo uno fuera
B7         E7        F   G  Am
   Aunque sólo uno fuera
B7         E7        F   G  Am
   Aunque sólo uno fuera
B7         E7        Am
   Aunque sólo uno fuera

B7      E7           Am
   Aunque sólo uno fuera
B7      E7           Am
   Aunque sólo uno fuera
B7      E7           Am 
   Aunque sólo uno fuera

( B7  E7  Am )
( B7  E7  Am )

B7      E7           Am  B7  E7  Am
   Aunque sólo uno fuera
B7      E7           Am  B7  E7  Am
   Aunque sólo uno fuera
B7      E7           Am  B7  E7  Am
   Aunque sólo uno fuera

[Final] Am  B7  E7
        Am  B7  E7
Otros videos de esta canción
    148.532 exhibiciones
    • Simplificar cifrado
      • ½ Tono
      • Am
      • Bbm
      • Bm
      • Cm
      • C#m
      • Dm
      • Ebm
      • Em
      • Fm
      • F#m
      • Gm
      • G#m
    • Agregar a la lista

    Afinación de cifrado

    Afinador online

      OK