Cifra Club

Vivo En Un Saco

Jarabe de Palo

Cifrado: Versão 3 (guitarra y guitarra eléctrica)
tono: Dm
E|----| -> no tanto
.     : Un punto detras de un acorde indica que hay que mutarlo

    Y ahora al lio...

INTRO:

    La intro, aparte de ser eso, es tambien la base ritmica de la cancion
pues exceptuando los dos cambios que hay es lo que hace la ritmica, asi que a
partir de aqui solo pongo los acordes, pero se siguen tocando igual.

    F             C             F             A#
e||-------1-----|-------0-----|-------1-----|-------1-----|
B||-------1-----|-------1-----|-------1-----|-------3-----|
G||-----2---2---|-----0---0---|-----2---2---|-----3---3---|
D||---3-------3-|---2-------2-|---3-------3-|---3-------3-|
A||-3-----------|-3-----------|-3-----------|-1-----------|
E||-------------|-------------|-------------|-------------|

    F             C             Dm(w/FILL 1) Dm
e||-------1-----|-------0-----|-------1-----||-1-----1-----1--.
B||-------1-----|-------1-----|-----3---3---||---3-----3-----3.
G||-----2---2---|-----0---0---|---2-------2-||-----2-----2----.
D||---3-------3-|---2-------2-|-0-----------||----------------.
A||-3-----------|-3-----------|-------------||----------------.
E||-------------|-------------|-------------||----------------.
                                            |  Vivo en un saco ...
VERSO :
    Dm             F
    Vivo en un saco
                   C
    Pegado al suelo
                   F
    De' donde veo
                   A#
    Gente pasando,
                   F
    Y cuando salgo
                   C
    Entonces pienso
                   Dm(w/FILL 2)
    Mejor me quedo.

    Vivo en un saco
    Lleno de trastos
    De' donde oigo
    Gente hablando,
    Y cuando salgo
    Entonces pienso
                    Dm(w/FILL 3)
    Mejor me callo.

ESTRIBILLO:
   D5              F5                  C5                F5                A#5
e||--------------|-------------------|-----------------|-----------------|----|
B||--------------|-------------------|-----------------|-----------------|----|
G||*-------------|-------------------|-----------------|-----------------|----|
D||*10h12p10--7-|------10h12p10--7-|-10-10-----------|-----------------|----|
A||--------------|-8-8---------------|--------10h12p10-|-8-8--10h12p10-8-|----|
E||--------------|-------------------|-----------------|-----------------|-10-|

                  F5                  C5      D5
E|--------------|-------------------|-------|---------------------------------|
B|--------------|-------------------|-------|---------------------------------|
G|--------------|-------------------|-------|--------------------------------*|
D|-10h12p10--7-|------10h12p10--7-|-10-10|-------------------------10/12--*|
A|--------------|-8-8---------------|-------|------8----8-10/11-10-12---------|
E|--------------|-------------------|-------|-8-10---10-----------------------|
                                    |1.VEZ    P.M======-----/

   C5      D5                        /====\ne|-------|-------------------------------------||
B|-------|-------------------------------------| |
G|-------|-------------------------12b(14)r| -||
D|-10-10|-------------------10-12-------------| |
A|-------|------8-10-8-10-12-------------------| |
E|-------|-8-10--------------------------------| |
 |2.VEZ    P.M======-----/

VERSO 2:
    F
    No soy un robot,
    C
    Tengo corazon,
    F
    Mi reloj son
    A#                (w/FILL 4)
    El Sol y las horas.
    F
    No soy un robot
    C
    Enchufado a los
    Dm                (w/FILL 5)
    tiempos que corren.

    No soy un cabron
    Ni un predicador
    No juego a farol y si
    A#          (w/FILL 6)
    Palmo, palmo.
    F                      C
    Dicen que estoy acabado
    Dm(w/FILL 7)
    Pues podria ser que si

ESTRIBILLO 2:

   D5              F5                  C5                F5                A#5
e||--------------|-------------------|-----------------|-----------------|----|
B||--------------|-------------------|-----------------|-----------------|----|
G||*-------------|-------------------|-----------------|-----------------|----|
D||*10h12p10--7-|------10h12p10--7-|-10-10-----------|-----------------|----|
A||--------------|-8-8---------------|--------10h12p10-|-8-8--10h12p10-8-|----|
E||--------------|-------------------|-----------------|-----------------|-10-|
    Vivo   en un  saco, pegado   al   suelo, vivo en un saco, lleno de  trastos

                  F5                  C5      D5
                                    |1.VEZ    P.M======-----/
E|--------------|-------------------|-------|---------------------------------|
B|--------------|-------------------|-------|---------------------------------|
G|--------------|-------------------|-------|--------------------------------*|
D|-10h12p10--7-|------10h12p10--7-|-10-10|-------------------------10/12--*|
A|--------------|-8-8---------------|-------|------8----8-10/11-10-12---------|
E|--------------|-------------------|-------|-8-10---10-----------------------|
   y    cuando   salgo  en___tonces  pienso   mejor me quedo

   C5      D5
 |2.VEZ    P.M======-----/           /====\ne|-------|-------------------------------------||
B|-------|-------------------------------------| |
G|-------|-------------------------12b(14)r| -||
D|-10-10|-------------------10-12-------------| |
A|-------|------8-10-8-10-12-------------------| |
E|-------|-8-10--------------------------------| |
  pienso   mejor me callo

INTERMEDIO:

e||-------1-----|-------0-----|-------1-----|-------1-----|
B||-------1-----|-------1-----|-------1-----|-------3-----|
G||-----2---2---|-----0---0---|-----2---2---|-----3---3---|
D||---3-------3-|---2-------2-|---3-------3-|---3-------3-|
A||-3-----------|-3-----------|-3-----------|-1-----------|
E||-------------|-------------|-------------|-------------|

                               (w/FILL 8)
e||-------1-----|-------0-----|-------1-----1-----1-----||
B||-------1-----|-------1-----|-----3---3-----3-----3---||
G||-----2---2---|-----0---0---|---2-------2-----2-----2-||
D||---3-------3-|---2-------2-|-0-----------------------||
A||-3-----------|-3-----------|-------------------------||
E||-------------|-------------|-------------------------||

VERSO 3:
    F
    No soy un robot,
    C
    Tengo corazon,
    F
    Mi reloj son
    A#
    El Sol y las horas.
    F
    No soy un robot
    C
    Enchufado a los
    Dm          (w/FILL 9)
    tiempos que corren.
    F5                          -|
    No soy un cabron             |
    C5                           | Todos estos
    Ni un predicador             | acordes van
    F5                           | con Palm Mute
    No juego a farol y si        | a saco.
    A#5                          |
    Palmo, palmo.                |
    F5                     C5   _|
    Dicen que estoy acabado
    D5                          <- Aqui quitamos el P.M. progresivamente
    Pues podria ser que si

ESTRIBILLO 3:
   Igual que el ESTRIBILLO 2

VERSO 4:
   F5                 \n   No soy un robot    |
   C5                 |
   Tengo corazon      | Otra vez
   F5                 |
   Mi reloj son       | con
   A#5(w/FILL 10)     |
   El sol y las horas | P.M.
   F5                 |
   No soy un robot    |
   C5                 /
   enchufado a los
   D5                 <- y aqui lo volvemos a quitar
   Tiempos que corren

   D5...........F5................C5........................F5.................
      |====\\ne||------------|-----------------|-------------------------|-------------------|
B||------------|-----------------|-------------------------|-------------------|
G||-16pb(18)sr-|-----------------|----------14tr(12)-12/|-------------------|
D||------------|-----------------|-------------------------|-------------------|
A||------------|-----------------|-------------------------|-------------------|
E||------------|-----------------|-------------------------|-------------------|
                 No soy un cabron. Ni un predi__cador        No juego a farol y

  A#5...................F5.......................C5..........................
                                                  <----------s.h.------------
E|---------------------|-------------------------|---------------------------|
B|---------------------|-------------------------|---------------------------|
G|---------------10-10-|----------------10-12-14-|-14~14~14~14~14~14~14~14~14|
D|-------(10)/12-------|--------(10)/12----------|---------------------------|
A|---------------------|-------------------------|---------------------------|
E|---------------------|-------------------------|---------------------------|
   si palmo, pal____mo.  Dicen que estoy acabado


  D5                                    F5                 C5
E|----------------s.h.--------------| >
E|-------------------------------------|------------------|-----------------|
B|-------------------------------------|--------------/18-|-18----17-15--13-|
G|14~14~14~14~14~14~14~14~14~14~14-14~|-14---------------|-----------------|
D|-------------------------------------|------------------|-----------------|
A|-------------------------------------|------------------|-----------------|
E|-------------------------------------|------------------|-----------------|
  pues podria ser que si.    Vivo en un saco, pegado al    suelo, vivo en un

  F5             A#5                   F5                 C5
                                          /===
E|--------------|---------------------|------------------|---------------------|
B|-15--------15-|-13------------------|------------------|----------15-15------|
G|--------------|----14p12----14p12---|-20b(22)-18----22-|-20----14-14----14|
|
D|--------------|----------15---------|------------------|---------------------|
A|--------------|---------------------|------------------|---------------------|
E|--------------|---------------------|------------------|---------------------|
  saco lleno de  trastos,     y cuando  salgo,  entonces  pienso, mejor me quedo

  D5                                              F5              C5
E|----------------------------------------------|----------------|-----------|
B|----------------------------------------------|----------------|-----------|
G|14-14p12----14-14p12----14-14p12----14--------|------14-------|-/15-------|
D|---------14----------14----------14-----------|----------------|-----------|
A|----------------------------------------------|----------------|-----------|
E|----------------------------------------------|----------------|-----------|
                                      Vivo en un saco, pegado al  suelo, vivo

        F5               A#5               F5               C5           D5
                                           <---------s.h.------->          /===
E|-----|----------------|-----------------|----------------|------------|--------|
B|-----|----------------|-----------------|----------------|------------|--------|
G|----|-/14-----14--12-|-----------------|-14~14~14~14~14~|-14~14--12--|-14b(16)|
D|-----|----------------|-15p12h15--15|
-|----------------|------------|--------|
A|-----|----------------|-----------------|----------------|------------|--------|
E|-----|----------------|-----------------|----------------|------------|--------|
  en un saco, lleno de   trastos y cuando  salgo, entonces  pienso mejor me callo

    Fade Out despues de esto. Siguen tocando, pero improvisando queda bien. (El
volumen es bajo y no me apetece ponerme a sacarlo...)


*********************************FILL's**************************************


   FILL 1        FILL 2     FILL 3 FILL 4       FILL 5
                                     /===
e||-------------|----------|13-13-|------------|------------------------|
B||-------------|----------|18-18-|------------|------------------------|
G||-10-10/12-10-|----------|------|-12b(14)-10-|------------------------|
D||-------------|-7-9-9/12-|------|------------|-------10-10/12-10------|
A||-------------|----------|------|------------|-10/12-------------128-|
E||-------------|----------|------|------------|------------------------|
                           muy bajo

   FILL 6        FILL 7                  FILL 8
                                           ///==   |===\\
e||-------------|----------------------|------------------------------|
B||-------------|----------------------|------------------------------|
G||-------10-10-|-10/12----10-12-10-|-12sb(14)-12pb(14)sr 10h12p10-|
D||-10h12-------|----------12----------|------------------------------|
A||-------------|----------------------|------------------------------|
E||-------------|----------------------|------------------------------|
          <s.h.> <--------s.h.-------->

    FILL 9       FILL 10
                   ///=== |====\\
e||------------|-------------------------|
B||------------|-------------------------|
G||------------|-12sb(14)-12pb(14)sr-10-|
D||------------|-------------------------|
A||-10-10/128-|-------------------------|
E||------------|-------------------------|

*****************************************************************************


    Y esto es lo que hay. Creo que esta todo, pero alomejor se me ha escapado
algo. Como siempre, si la usais en otro lado, dadme credito.
    Para intercambios, dudas, sugerencias, criticas, comentarios, lo que sea,
me encontrareis en:

                                                        ========






==================================----------------------------------------///
E|----| -      ---   ---   ---          .sssssssso
    __) |     |___| |    |/           .sd$$$$$$$P'
E|----)| |---- |   | |--- |---      .sd$$$$$$$$P'
                   .,,,..__         d$P'                 "Victims, aren't
        .   .d$$b d$$$$$$$$$$$$$$b $$ ,,,s$$$$$bs,,.      we all!"
     .s$$$.d$P'$$ $$$$$$$$$$$$$$$$ $$ '''9$$$$$$$$$:
    d$P'`:P'   $$ $$$$$$$$$$$$$$$$ $$$$$$ $$$$"""''`      --- The CROW
    `9b,._   BlackMiG [c] '98  ________.,sd$$$
      `''"""""""""""""""""""""""""""""""""""'`
                                    Víctor Corrales Gallego
00:00 / 00:00
Otros videos de esta canción
Repetir
Otros videos de esta canción
Composición de Jarabe de Palo
    • ½ Tono
    • Am
    • Bbm
    • Bm
    • Cm
    • C#m
    • Dm
    • Ebm
    • Em
    • Fm
    • F#m
    • Gm
    • G#m
  • Agregar a la lista
    00:00 / 00:00
    OK